Waiting - Hours Into Days

                                   Waiting - Hours Into Days

Tabbed by: Chris Griffin
Email: chrisgriffin93@gmail.com

Tuning: Standard, Capo on 2nd fret.

INTRO

e|----3----------3-----------3-------3--------3-----------3--------3------3-|
B|------1----------1-----------1-----1----------1----------1--------1-----3-|
G|--------2----------2-----------2---0------------2---------2--------2----0-|
D|-------------3---------------------0------------------3-----------------0-|
A|--0----------------------3---------2------0--------------------3--------2-|
E|------------------------------------------------------------------------3-|



Chords: Am (actually Bm because of capo), F (G), C (D), G (A)


Verse

Am F C
Maybe someday I'll get this right, but 'til then I won't lose sight of this

G Am F
situation I can't seem to let go of. How did I let you get away? I feel

C G
like my time is being wasted, chasing you down these dead end streets.



Chorus


Am F C
You're always breaking into my dreams. This is why I can't go to sleep. I'm

G Am F
the one holding onto these words unsaid. You know it's tearing me apart.

C G
I should've known this from the start. All the days will roll by and I'll

F
be here waiting.




2nd Verse: (palm muted)



Am F C
I can't forget the reasons why you are always on my mind. Sometimes I think

G
why should I try but I can't get you out of my head.


The lead parts after each of the first three chords:

e|-------3------------3------------3----------------------------------------|
B|---------1------------1------------1--------------------------------------|
G|-(Am)------2---(F)------2----(C)-----0------------------------------------|
D|--------------------------------------------------------------------------|
A|--------------------------------------------------------------------------|
E|--------------------------------------------------------------------------|


Chorus (same as before)


Bridge

F Am F C
Waiting for the chance to be here for you when everything else is falling

G Am F C G
through. I won't be the one to let you down. This is just the beginning.




Chorus (same chords as before but with each chord being strummed once the
first time through and palm muted the 2nd time through.)

Chorus

Outro/Chorus (same chords as chorus)

End on Am
Guitar Tab Creator is intended to store guitar tab created through the tool. It currently does not support in-line text editing. Any text you place in here will be lost. If you need to comment on your tab, please use the "Tab Notes" section located below.