Everything

(/) Slide Up  (\) Slide Down  (h) Hammer On  (p) Pull Off  (b) Bend (r) Release (v) Vibrato
E|-----------------0-----3-----------------------------0-----3--------------
B|--------2--------------------0--------------2--------------------0--------
G|--0--------------------------------0-----------------------------------0--
D|--2--------2--1-----------------------2--------2--1-----------------------
A|--------------------------3-----3-----------------------------3-----3-----
E|-----2--------------2--0-----------------2--------------2--0--------------



E|---------------0---------------3---------------------
B|----------2----------------------------0----------0--
G|----0---------------------------------------------2--
D|-------2--2----1--1--1-------------------------2--0--
A|-------3--3-------3--3------------3p3----------3--3--
E|--2p0--------2p0--------2p0----0----------2p0--------



E|--3-----------------------
B|-----3--0--------------0--
G|-----------------0-----2--
D|--------------------2--0--
A|--------------3-----3--3--
E|--0-----2--0--------------



E|-----------------------------------0--3-----------------------------
B|--------------------2-----------------------------0-----------------
G|--------------0-----------------------------------------------0--0--
D|--2--------2-----2--2--2-----------1-----------2-----------2--2--2--
A|-----0--3--3-----3--3-----0--3-----3--3--3--0-----3--3--0-----3--3--
E|--------------------------------2--2--------------------------------
http://www.guitartabcreator.com
Guitar Tab Creator is intended to store guitar tab created through the tool. It currently does not support in-line text editing. Any text you place in here will be lost. If you need to comment on your tab, please use the "Tab Notes" section located below.