Improvisation Solo by Chrisgaj2

(/) Slide Up  (\) Slide Down  (h) Hammer On  (p) Pull Off  (b) Bend (r) Release (v) Vibrato
E|-7/10-7-----------------
B|--------10-7------10----
G|-------------9/11----11-
D|------------------------
A|------------------------
E|------------------------



E|--7/10-------------------
B|--------10--7--------10--
G|---------------9/11------
D|-------------------------
A|-------------------------
E|-------------------------
http://www.guitartabcreator.com
Guitar Tab Creator is intended to store guitar tab created through the tool. It currently does not support in-line text editing. Any text you place in here will be lost. If you need to comment on your tab, please use the "Tab Notes" section located below.