Paris Morning

(/) Slide Up  (\) Slide Down  (h) Hammer On  (p) Pull Off  (b) Bend (r) Release (v) Vibrato
E|--5p4----4------4--4--2--4p2p0--2---------0--2--2/4----2p0----0-------
B|---------0----------------------0------0----------------------0-------
G|--------------------------------------------------------------0-------
D|--------------------------------------------------------------0-------
A|---------5----------------------4-----------------------------2-------
E|----------------------------------------------------------------------



E|----------------0---------------------------------------2---------------------
B|-----------0h2-----2p0-------0h2p0h2b0-------------4h5-----5--4--2h4p2--------
G|--------0---------------0----0------------------2-----------------------2-----
D|-----0-----------------------4---------------4-----------------------------5--
A|--2---------------------------------------2-----------------------------------
E|-----------------------------5------------------------------------------------



E|----------------------------------------------------------------------
B|--2--2h4b2h0----0--------------------------------------0h4h5h7--------
G|--2--2----------------------------------------0h4h6h7-----------------
D|--4--2-------------------------------0h4h5h7--------------------------
A|--2--0----------------------0h4h5h7-----------------------------------
E|--5-------------0--0h4h5h7--------------------------------------------
http://www.guitartabcreator.com
Guitar Tab Creator is intended to store guitar tab created through the tool. It currently does not support in-line text editing. Any text you place in here will be lost. If you need to comment on your tab, please use the "Tab Notes" section located below.