Warn Ups

(/) Slide Up  (\) Slide Down  (h) Hammer On  (p) Pull Off  (b) Bend (r) Release (v) Vibrato
E|--------
B|--------
G|--2--
D|--2-----
A|--0------
E|--------



E|-----------------------------------------2--3--3--2-----------------------------------------
B|-----------------------------------3--5--------------5--3-----------------------------------
G|--------------------------2--4--5--------------------------5--4--2--------------------------
D|-----------------2--4--5--------------------------------------------5--4--2-----------------
A|--------2--3--5--------------------------------------------------------------5--3--2--------
E|--3--5--------------------------------------------------------------------------------5--3--



E|--------
B|--------
G|--2--
D|--2-----
A|--0------
E|--------



E|--7--8--7--------------------------------------
B|-----------8-----------------------------------
G|--------------7--5--4--------------------------
D|-----------------------7--5--------------------
A|-----------------------------7--5--3--2--------
E|-----------------------------------------5--3--



E|---------------------------------------------------7--8--10--12--14--15--15--14--12--10--8--7---------------------------------------------------
B|--------------------------------------5--7--8--10----------------------------------------------10--8--7--5--------------------------------------
G|-----------------------------4--5--7------------------------------------------------------------------------7--5--4-----------------------------
D|--------------------4--5--7------------------------------------------------------------------------------------------7--5--4--------------------
A|--------2--3--5--7------------------------------------------------------------------------------------------------------------7--5--3--2--------
E|--3--5------------------------------------------------------------------------------------------------------------------------------------5--3--



E|--------
B|--------
G|--2--
D|--2-----
A|--0------
E|--------



E|-----------------------------------------------------------
B|-----5-----8-----8-----8-----------------------------------
G|--7-----7-----7-----7-----7--5-----------------------------
D|--------------------------------7--5-----------------------
A|--------------------------------------7--6--5--3-----------
E|--------------------------------------------------5--3--5--
http://www.guitartabcreator.com
Guitar Tab Creator is intended to store guitar tab created through the tool. It currently does not support in-line text editing. Any text you place in here will be lost. If you need to comment on your tab, please use the "Tab Notes" section located below.