Dad and son

(/) Slide Up  (\) Slide Down  (h) Hammer On  (p) Pull Off  (b) Bend (r) Release (v) Vibrato
E|-------------------------------------------------------------------------12--
B|--------------------------------3--2--4--5--6------------------------12------
G|--------------------------2--3-----------------6-----------------12----------
D|--------------------3--2--------------------------6----------12--------------
A|-----------1--2--3---------------------------------------12------------------
E|--1--1--1--------------------------------------------12----------------------


Chris, check this out. I added the below to the part you wrote above. Have fun....
E|-----------------------------------------
B|-----------2-----------8--7--------------
G|-----5--4-----------------------6--------
D|--5-----------1-----9--------------7--7--
A|-----------------5-----------8-----------
E|-----------------------------------------
http://www.guitartabcreator.com
Guitar Tab Creator is intended to store guitar tab created through the tool. It currently does not support in-line text editing. Any text you place in here will be lost. If you need to comment on your tab, please use the "Tab Notes" section located below.