Johnny's Blues

(/) Slide Up  (\) Slide Down  (h) Hammer On  (p) Pull Off  (b) Bend (r) Release (v) Vibrato
E|----------------------------------------------------
B|----------------------------------------------------
G|----------------------------------------------------
D|-----------------9--12--9-----------------9--12--9--
A|----------9--12--------------------9--12------------
E|--10--12-------------------10--12-------------------



E|-------------------10b12b12--12--10--------------------------------
B|-----------10--12--------------------v12--12--10-------------------
G|--9h10h11----------------------------------------v11--11--10--v9\--
D|-------------------------------------------------------------------
A|-------------------------------------------------------------------
E|-------------------------------------------------------------------



http://www.guitartabcreator.com
Guitar Tab Creator is intended to store guitar tab created through the tool. It currently does not support in-line text editing. Any text you place in here will be lost. If you need to comment on your tab, please use the "Tab Notes" section located below.