Back to the Future

(/) Slide Up  (\) Slide Down  (h) Hammer On  (p) Pull Off  (b) Bend (r) Release (v) Vibrato
E|----------------------------------------
B|-----8\9--13\14--12--11p9--11p9--7--9v--
G|--6-------------------------------------
D|----------------------------------------
A|----------------------------------------
E|----------------------------------------



E|----------------------------------------------10\11--11--10--8h10h11v--
B|--9-----8v--6--8--9--6-----8v--6--8--9-----9---------------------------
G|-----6------------------6---------------8------------------------------
D|-----------------------------------------------------------------------
A|-----------------------------------------------------------------------
E|-----------------------------------------------------------------------



E|------------------------------------------------------------15\16--16--15--13--15--16--
B|--14------13v--11--13--14--11------13v--11--13--14------14-----------------------------
G|------11-----------------------11-------------------13---------------------------------
D|---------------------------------------------------------------------------------------
A|---------------------------------------------------------------------------------------
E|---------------------------------------------------------------------------------------



E|--14v--13p11--13p11--9--11v--16--14v--13p11--13p11--9--11v--
B|------------------------------------------------------------
G|------------------------------------------------------------
D|------------------------------------------------------------
A|------------------------------------------------------------
E|------------------------------------------------------------



E|-----------------------------------------------------
B|--5-----4v--6--8--9--6-----8v--9--11--12--9-----10v--
G|-----2------------------6--------------------9-------
D|-----------------------------------------------------
A|-----------------------------------------------------
E|-----------------------------------------------------



E|--------------------------------------------------------------------------
B|--------------------------------------------------------------------------
G|--5-----4v--5--7--5--------4v--5--7--8-----7v--9--11--12------11v--11--13b
D|-----3---------------7--3---------------6-----------------10--------------
A|--------------------------------------------------------------------------
E|--------------------------------------------------------------------------
http://www.guitartabcreator.com
Guitar Tab Creator is intended to store guitar tab created through the tool. It currently does not support in-line text editing. Any text you place in here will be lost. If you need to comment on your tab, please use the "Tab Notes" section located below.