I won'tgiveup01

(/) Slide Up  (\) Slide Down  (h) Hammer On  (p) Pull Off  (b) Bend (r) Release (v) Vibrato


E|----------------------------------------------------------------------
B|--------------1--1--0v--------------1/3--3--0v--------------1--1--0v--
G|--0--0--2--4------------0--0--2--4--------------0--0--2--4------------
D|----------------------------------------------------------------------
A|----------------------------------------------------------------------
E|----------------------------------------------------------------------



E|--------------
B|--3--1--------
G|--------0--2--
D|--------------
A|--------------
E|--------------



E|---------------------------------------------
B|--5--3--1--1v--1v--1v--3/5/3--1--1v--1/3--3--
G|---------------------------------------------
D|---------------------------------------------
A|---------------------------------------------
E|---------------------------------------------



E|-----------------------------------
B|--5--3--1--1--------1--1v----v----p
G|--------------2--0-----------------
D|-----------------------------------
A|-----------------------------------
E|-----------------------------------



E|--
B|--
G|--
D|--
A|--
E|--
http://www.guitartabcreator.com
Guitar Tab Creator is intended to store guitar tab created through the tool. It currently does not support in-line text editing. Any text you place in here will be lost. If you need to comment on your tab, please use the "Tab Notes" section located below.