We Are

(/) Slide Up  (\) Slide Down  (h) Hammer On  (p) Pull Off  (b) Bend (r) Release (v) Vibrato

Stave 1:

E|---------------------
B|---------------------
G|---------------------
D|----0----------------
A|----0----------------
E|----0----------------

Stave 2:

E|------------------------------------------------------------------------------------
B|------------------------------------------------------------------------------------
G|------------------------------------------------------------------------------------
D|----0----7----9----5----0----7----5----7----5----7----0----7----9----5----7----5----
A|----0----5----9----5----0----5----5----7----5----7----0----5----9----5----7----5----
E|----0---------9----5----0---------5----7----5----7----0---------9----5----7----5----

Stave 3:

E|-----------------------------
B|-----------------------------
G|-----------------------------
D|----2----5-------------------
A|----2----5-------------------
E|----2----5-------------------

Stave 4:

E|------------------------------------------------------------------------------------
B|------------------------------------------------------------------------------------
G|------------------------------------------------------------------------------------
D|----4----5----7----0----4----5----7----7----4----5----7----0----4----5----7----7----
A|----2----5----7----0----2----5----5----7----2----5----7----0----2----5----5----7----
E|---------5----7----0---------5---------7---------5----7----0---------5---------7----

Stave 5:

E|--------------
B|--------------
G|--------------
D|----2----5----
A|----2----5----
E|----2----5----

Stave 6:

E|----------------------------------
B|----------------------------------
G|----------------------------------
D|----4----5----0----7----0----7----
A|----2----5----0----7----0----7----
E|---------5----0----7----0----7----

Stave 7:

E|-----------------------------
B|-----------------------------
G|-----------------------------
D|----0------------------------
A|----0------------------------
E|----0------------------------

Stave 8:

E|------------------------
B|------------------------
G|------------------------
D|----0----5----4----2----
A|----0----5----4----2----
E|----0----5----4----2----

Stave 9:

E|---------
B|---------
G|---------
D|----0----
A|----0----
E|----0----

http://www.guitartabcreator.com
Guitar Tab Creator is intended to store guitar tab created through the tool. It currently does not support in-line text editing. Any text you place in here will be lost. If you need to comment on your tab, please use the "Tab Notes" section located below.