robin/gilles intro

(/) Slide Up  (\) Slide Down  (h) Hammer On  (p) Pull Off  (b) Bend (r) Release (v) Vibrato


E|--0-----------0-----------3-----------2-----------
B|--0--0-----0--1--1-----1--0--0-----0--3--3-----3--
G|--0-----0-----0-----0-----0-----0-----2-----2-----
D|--------------------------------------------------
A|--2-----------3-----------2-----------0-----------
E|--------------------------------------------------

E|--0-----------0-----------3-----------2-----------
B|--0--0-----0--1--1-----1--0--0-----0--3--3-----3--
G|--0-----0-----0-----0-----0-----0-----2-----2-----
D|--------------------------------------------------
A|--2-----------3-----------2-----------0-----------
E|--------------------------------------------------
Guitar Tab Creator is intended to store guitar tab created through the tool. It currently does not support in-line text editing. Any text you place in here will be lost. If you need to comment on your tab, please use the "Tab Notes" section located below.