Can you feel the love tonight (Elton John)

(/) Slide Up  (\) Slide Down  (h) Hammer On  (p) Pull Off  (b) Bend (r) Release (v) Vibrato

Intro

E|--------3--1--1--1--1--1--0--------------------------------------------
B|--5--3-----------------------1--------------------1--------------------
G|--------------------------------0--2--2--2--2--0-----0--------------0--
D|--------------------------------------------------------2--0--2--3-----
A|-----------------------------------------------------------------------
E|-----------------------------------------------------------------------

Strofe 1

E|--------------------------------------------------------0--1--0-----0-----
B|-----0--1--3--1--------0--1--3--1-----0--1--1--3--1--------------3-----3--
G|--2--------------0--2--------------2-----------------0--------------------
D|--------------------------------------------------------------------------
A|--------------------------------------------------------------------------
E|--------------------------------------------------------------------------



E|--------------------------------------------------3--0-----------1--0-----0-----
B|-----0--1--3--1--------0--1--3--1-----0--1--------------1--1-----------3-----3--
G|--2--------------0--2--------------2--------0--0--------------2-----------------
D|--------------------------------------------------------------------------------
A|--------------------------------------------------------------------------------
E|--------------------------------------------------------------------------------

Ref.

E|-----3--0-----3--0--------------1--0--------------------3--0-----------1--0-----0-----
B|-----------3--------1--------1--------3-----0--1--------------1--1-----------3-----3--
G|--0--------------------2--0--------------2--------0--0--------------2-----------------
D|--------------------------------------------------------------------------------------
A|--------------------------------------------------------------------------------------
E|--------------------------------------------------------------------------------------



E|-----3--0-----3--0--------------1--0--------------------3--0-----------1--0-----0-----
B|-----------3--------1--------1--------3-----0--1--------------1--1-----------3-----3--
G|--0--------------------2--0--------------2--------0--0--------------2-----------------
D|--------------------------------------------------------------------------------------
A|--------------------------------------------------------------------------------------
E|--------------------------------------------------------------------------------------

Intro/begin 2nd strofe

E|--------3--1--1--1--1--1--0--------------------------------------------
B|--5--3-----------------------1--------------------1--------------------
G|--------------------------------0--2--2--2--2--0-----0--------------0--
D|--------------------------------------------------------2--0--2--3-----
A|-----------------------------------------------------------------------
E|-----------------------------------------------------------------------

Strofe 2

E|--------------------------------------------------------0--1--0-----0--------
B|-----0--1--3--1--------0--1--3--1-----0--1--1--3--1--------------3-----3-----
G|--2--------------0--2--------------2-----------------0-----------------------
D|-----------------------------------------------------------------------------
A|-----------------------------------------------------------------------------
E|-----------------------------------------------------------------------------



E|--------------------------------------------------3--0-----------1--0-----0-----
B|-----0--1--3--1--------0--1--3--1-----0--1--------------1--1-----------3-----3--
G|--2--------------0--2--------------2--------0--0--------------2-----------------
D|--------------------------------------------------------------------------------
A|--------------------------------------------------------------------------------
E|--------------------------------------------------------------------------------

Ref.

E|-----3--0-----3--0--------------1--0--------------------3--0-----------1--0-----0-----
B|-----------3--------1--------1--------3-----0--1--------------1--1-----------3-----3--
G|--0--------------------2--0--------------2--------0--0--------------2-----------------
D|--------------------------------------------------------------------------------------
A|--------------------------------------------------------------------------------------
E|--------------------------------------------------------------------------------------



E|-----3--0-----3--0--------------1--0--------------------3--0-----------1--0-----0-----
B|-----------3--------1--------1--------3-----0--1--------------1--1-----------3-----3--
G|--0--------------------2--0--------------2--------0--0--------------2-----------------
D|--------------------------------------------------------------------------------------
A|--------------------------------------------------------------------------------------
E|--------------------------------------------------------------------------------------

Ending

E|-----------------3--0-----------1-----------
B|-----0--1--------------1--1--------3--1--1--
G|--2--------0--0--------------2--------------
D|--------------------------------------------
A|--------------------------------------------
E|--------------------------------------------
http://www.guitartabcreator.com
Guitar Tab Creator is intended to store guitar tab created through the tool. It currently does not support in-line text editing. Any text you place in here will be lost. If you need to comment on your tab, please use the "Tab Notes" section located below.