my song

(/) Slide Up  (\) Slide Down  (h) Hammer On  (p) Pull Off  (b) Bend (r) Release (v) Vibrato

E|-----------------------------------------------------------
B|--------------0-----------------0-----------------0--------
G|-----------2-----2-----------0-----0-----------------0-----
D|--------2-----------2-----2-----------2--------0--------0--
A|--0--0-----------------3--------------------2--------------
E|-----------------------------------------3-----------------



E|-----------------------------------------------------------------2--
B|-----------0-----------------0-----------------0--------------3-----
G|--------2-----2-----------0-----0-----------------0--------2--------
D|-----2-----------2-----2-----------2--------0--------0--0-----------
A|--0-----------------3--------------------2--------------------------
E|--------------------------------------3-----------------------------



E|--------------------------------------------------------------------------
B|--12------12------12------------------------------------------------------
G|------12------12------12--12------12------12------11------11------11------
D|------------------------------12------12------12------12------12------12--
A|--------------------------------------------------------------------------
E|--------------------------------------------------------------------------



E|-------------------------
B|------------------12--3--
G|--------7--9--12---------
D|--7--9-------------------
A|-------------------------
E|-------------------------



E|--------------7--12--
B|-----------8---------
G|--------9------------
D|--7--9---------------
A|---------------------
E|---------------------



E|--15--17--17--17--17--15--17--19--17--15------------------
B|------------------------------------------17--15----------
G|--------------------------------------------------18--16--
D|----------------------------------------------------------
A|----------------------------------------------------------
E|----------------------------------------------------------
http://www.guitartabcreator.com
Guitar Tab Creator is intended to store guitar tab created through the tool. It currently does not support in-line text editing. Any text you place in here will be lost. If you need to comment on your tab, please use the "Tab Notes" section located below.