First hardcore song

(/) Slide Up  (\) Slide Down  (h) Hammer On  (p) Pull Off  (b) Bend (r) Release (v) Vibrato


E|--------------5--5----------------------------5--5----------------
B|--------------5--5----------------------------5--5----------------
G|--------------0--0----------------------------0--0----------------
D|--4--4--5--5--4--4--9--9--11--11--4--4--5--5--4--4--11--11--9--9--
A|--2--2--2--2--5--5--7--7--9---9---2--2--2--2--5--5--9---9---7--7--
E|--2--2--2--2--------7--7--9---9---2--2--2--2--------9---9---7--7--



E|--------------5--5-----------
B|--------------5--5--1--1-----
G|--------------0--0--0--0-----
D|--2--2--2--2--4--4--2--2--0--
A|--2--2--2--2--5--5--3--3--0--
E|--2--2--2--2--------------0--



E|--------------
B|--------------
G|--------------
D|--2--2--2--2--
A|--2--2--2--2--
E|--2--2--2--2--



E|-------------------------------
B|-------------------------------
G|----------------9--9-----7--7--
D|--12--12--7--7--9--9--7--7--7--
A|--10--10--5--5--7--7--7--5--5--
E|--10--10--5--5-----------------
http://www.guitartabcreator.com
Guitar Tab Creator is intended to store guitar tab created through the tool. It currently does not support in-line text editing. Any text you place in here will be lost. If you need to comment on your tab, please use the "Tab Notes" section located below.