inuyasha

(/) Slide Up  (\) Slide Down  (h) Hammer On  (p) Pull Off  (b) Bend (r) Release (v) Vibrato


E|--------0--0--3--5--7--10--7--5--3--0--7--5--0--7--5--------0-------------
B|--0--3--0--------7---------0--------0--------0--------5--3--0-------------
G|--------0--------7---------0--------0--------0--------2-----0----------0--
D|-----------------0------------------0-----------------0-----------2/4-----
A|--------3------------------------------------3-----------------2----------
E|---------------------------0--------------------------------0-------------



E|--------0-----0--3--5-----7--10--7-----5--3--0-----7--5--0-----7--5--0--------0-------------
B|--0--3--0------------------------------0-----------0-----0-----------------3--0-------------
G|--------0-----0---------------------0-----------0--------0-----0--------------0----------0--
D|-----------2--------0--4--7------------------0--------------2--------0--4-----------2/4-----
A|--------3------------------------------------------------3-----------------------2----------
E|---------------------------------0--------------------------------------------0-------------



E|--------0-----0-----0-----2-----0-----------------------------------------------------
B|--0--3-----------3-----------3--0-----3-----0-----0-----------------------------------
G|--------------0-----------2--------------2-----------2-----4--2--------------------0--
D|-----------2--------0--4--------------2-----------0-----2--------2--0--2-----2--4-----
A|--------3--------------------------2-----------2--------3--------0--------2-----------
E|--------------------------------0-----------3--------------0--------2--0--------------



E|--------0-----0-----0-----2-----0-----------------------0-----0-----0--3--2h3--------------------
B|-----------------3-----------3--0-----3-----0-----0--3-----------3-------------3--0-----3--0--0--
G|--0--3--------0-----------2--------------2--------------------0----------------------0-----0--0--
D|-----------2--------0--4--------------2-----------0--------2--------0-----0-------2-----4--------
A|--------3--------------------------2-----------2--------3----------------------------------2-----
E|--------------------------------0-----------3-------------------------------------------------3--



E|-----0--2--3--7--5--0--7--0--------0--------------
B|--0--------0--------0-----------3--0-----------0--
G|-----------0--------0--0--------0--0-----2-----0--
D|--------------------------0--4--------------4--2--
A|-----------3--------3-----------------2-----------
E|-----------------------------------0-----------0--
http://www.guitartabcreator.com
Guitar Tab Creator is intended to store guitar tab created through the tool. It currently does not support in-line text editing. Any text you place in here will be lost. If you need to comment on your tab, please use the "Tab Notes" section located below.