philxhtelcaliforniatabs

(/) Slide Up  (\) Slide Down  (h) Hammer On  (p) Pull Off  (b) Bend (r) Release (v) Vibrato


E|----------14--19--14--------------14--19--14--------------14--18--14------18b
B|-----------------------------------------------------------------------------
G|--14--16--------------16--14--16--------------16--15--18--------------18-----
D|-----------------------------------------------------------------------------
A|-----------------------------------------------------------------------------
E|-----------------------------------------------------------------------------



E|----------12--17--12--------------12--17--12--------------12--16--12------16b
B|-----------------------------------------------------------------------------
G|--14--16--------------16--14--16--------------16--13--16--------------16-----
D|-----------------------------------------------------------------------------
A|-----------------------------------------------------------------------------
E|-----------------------------------------------------------------------------



E|----------10--15--10--------------10--15--10--------------10--14--10------14b
B|-----------------------------------------------------------------------------
G|--12--14--------------14--12--14--------------14--11--14--------------14-----
D|-----------------------------------------------------------------------------
A|-----------------------------------------------------------------------------
E|-----------------------------------------------------------------------------



E|----------9--13--9--------------9--13--9--------------12--15--12---------
B|-------------------------------------------------------------------------
G|--10--13------------13--10--13------------13--12--15--------------15-----
D|-------------------------------------------------------------------------
A|-------------------------------------------------------------------------
E|-------------------------------------------------------------------------



E|--15b-b-
B|------
G|------
D|------
A|------
E|------
http://www.guitartabcreator.com
Guitar Tab Creator is intended to store guitar tab created through the tool. It currently does not support in-line text editing. Any text you place in here will be lost. If you need to comment on your tab, please use the "Tab Notes" section located below.