Walk Right In By Andy May -- Swift River Music

(/) Slide Up  (\) Slide Down  (h) Hammer On  (p) Pull Off  (b) Bend (r) Release (v) Vibrato

Stave 1:

E|-----------------------------------------2-----4-----------
B|--------------1-----1--------------3-----3-----------1--1--
G|-----------------------------------------1-----------------
D|--------------2-----2--------------2--0--------------2--2--
A|-----0--2--3--3-----3--3--2--1--0--------x-----2--3--3--3--
E|--3--------------3-----------------------x--3--3-----------

Stave 2:

E|-----------------------------------------2-----------4--4--
B|--------------1-----1--------------3-----3-----------------
G|-----------------------------------------1-----------------
D|--------------2-----2--------------3--0-----0--2--0--------
A|-----0--2--3--3-----3--3--2--1--0--------x-----------2--2--
E|--3--------------3-----------------------x-----------3--3--

Stave 3:

E|-----------------------------------------------------------------------------------1--1--
B|-----------------------------------------------------------------------------------1--1--
G|-----------------------------------------------------------------------------------2--2--
D|-----------------------------------------------------------1--0--------1--0--------3--3--
A|-----0--2--3--3--0--0--------0--0--3--3--0--0--------0--0--------3--0--------0--3--------
E|--3--------------------3--3--------------------3--3--------------------------------------

Stave 4:

E|-----------------------------------------2-----4-----
B|--------------1-----1--------------4-----3-----------
G|-----------------------------------3-----1-----------
D|--------------2-----2--------------2--0--------------
A|-----0--2--3--3-----3--3--2--1--0--------x-----2--3--
E|--3--------------3-----------------------x--3--3-----

http://www.guitartabcreator.com
Guitar Tab Creator is intended to store guitar tab created through the tool. It currently does not support in-line text editing. Any text you place in here will be lost. If you need to comment on your tab, please use the "Tab Notes" section located below.