fix you

(/) Slide Up  (\) Slide Down  (h) Hammer On  (p) Pull Off  (b) Bend (r) Release (v) Vibrato


E|-----------------0-----------------------0-----------------------0-----------------------0-----------
B|-----------------------0-----------------------0-----------0-----------0-----------------------0-----
G|-----------------------------------------------------------------------------------------------------
D|-----------2-----------------------2-----------------------------------------------4-----------------
A|-----------------------------------------------------------------------------2-----------------------
E|-----0-----------------------4-----------------------4-----------------------------------------------



E|-----------------0-----------------------0-----------------------0-----------------------0-----------
B|-----------------------0-----------------------0-----------0-----------0-----------------------0-----
G|-----------------------------------------------------------------------------------------------------
D|-----------2-----------------------2-----------------------------------------------4-----------------
A|-----------------------------------------------------4-----------------------2-----------------------
E|-----0-----------------------4-----------------------------------------------------------------------



E|-----------------0-----------------------0-----------------------0-----------------------0-----------
B|-----------------------0-----------------------0-----------0-----------0-----------------------0-----
G|-----------------------------------------------------------------------------------------------------
D|-----------2-----------------------2-----------------------------------------------4-----------------
A|-----------------------------------------------------4-----------------------2-----------------------
E|-----0-----------------------4-----------------------------------------------------------------------



E|-----------------0-----------------------0-----------------------0-----------------------0-----------
B|-----------------------0-----------------------0-----------0-----------0-----------------------0-----
G|-----------------------------------------------------------------------------------------------------
D|-----------2-----------------------2-----------------------------------------------4-----------------
A|-----------------------------------------------------------------------------2-----------------------
E|-----0-----------------------4-----------------------4-----------------------------------------------



E|-----------------0-----------------------0-----------------------0-----------------------0-----------
B|-----------------------0-----------------------0-----------0-----------0-----------------------0-----
G|-----------------------------------------------------------------------------------------------------
D|-----------2-----------------------2-----------------------------------------------4-----------------
A|-----------------------------------------------------4-----------------------2-----------------------
E|-----0-----------------------4-----------------------------------------------------------------------



E|-----------------0-----------------------0-----------------------0-----------------------0-----------
B|-----------------------0-----------------------0-----------0-----------0-----------------------0-----
G|-----------------------------------------------------------------------------------------------------
D|-----------2-----------------------2-----------------------------------------------4-----------------
A|-----------------------------------------------------4-----------------------2-----------------------
E|-----0-----------------------4-----------------------------------------------------------------------



E|-----------------0-----------------------0-----------------------0-----------------------0-----------
B|-----------------------0-----------------------0-----------0-----------0-----------------------0-----
G|-----------------------------------------------------------------------------------------------------
D|-----------2-----------------------2-----------------------------------------------4-----------------
A|-----------------------------------------------------4-----------------------2-----------------------
E|-----0-----------------------4-----------------------------------------------------------------------



E|-----------------0-----------------------0-----------------------0-----------------------0-----------
B|-----------------------0-----------------------0-----------0-----------0-----------------------0-----
G|-----------------------------------------------------------------------------------------------------
D|-----------2-----------------------2-----------------------------------------------4-----------------
A|-----------------------------------------------------4-----------------------2-----------------------
E|-----0-----------------------4-----------------------------------------------------------------------



E|-----------------0-----------------------0-----------------------0-----------------------0-----------
B|-----------------------0-----------------------0-----------0-----------0-----------------------0-----
G|-----------------------------------------------------------------------------------------------------
D|-----------2-----------------------2-----------------------------------------------4-----------------
A|-----------------------------------------------------4-----------------------2-----------------------
E|-----0-----------------------4-----------------------------------------------------------------------



E|-----------------0-----------------------0-----------------------0-----------------------0-----------
B|-----------------------0-----------------------0-----------0-----------0-----------------------0-----
G|-----------------------------------------------------------------------------------------------------
D|-----------2-----------------------2-----------------------------------------------4-----------------
A|-----------------------------------------------------4-----------------------2-----------------------
E|-----0-----------------------4-----------------------------------------------------------------------



E|-----0-----0-----0-----0-----0-----0-----0-----0-----0-----0-----0-----0-----0-----0-----
B|-----0-----0-----0-----0-----0-----0-----0-----0-----0-----0-----0-----0-----0-----0-----
G|-----2-----2-----2-----2-----2-----2-----2-----4-----4-----4-----4-----4-----4-----4-----
D|-----2-----2-----2-----2-----2-----2-----2-----4-----4-----4-----4-----4-----4-----4-----
A|-----0-----0-----0-----0-----0-----0-----0-----2-----2-----2-----2-----2-----2-----2-----
E|-----------------------------------------------------------------------------------------



E|-----0-----0-----0-----0-----0-----0-----0-----0-----0-----0-----0-----0-----0-----0-----
B|-----0-----0-----0-----0-----0-----0-----0-----0-----0-----0-----0-----0-----0-----0-----
G|-----2-----2-----2-----2-----2-----2-----2-----4-----4-----4-----4-----4-----4-----4-----
D|-----2-----2-----2-----2-----2-----2-----2-----4-----4-----4-----4-----4-----4-----4-----
A|-----0-----0-----0-----0-----0-----0-----0-----2-----2-----2-----2-----2-----2-----2-----
E|-----------------------------------------------------------------------------------------



E|-----0-----0-----0-----0-----0-----0-----0-----0-----0-----0-----0-----0-----
B|-----0-----0-----0-----0-----0-----0-----0-----0-----0-----0-----0-----0-----
G|-----2-----2-----2-----2-----2-----2-----2-----4-----4-----4-----4-----4-----
D|-----2-----2-----2-----2-----2-----2-----2-----4-----4-----4-----4-----4-----
A|-----0-----0-----0-----0-----0-----0-----0-----2-----2-----2-----2-----2-----
E|-----------------------------------------------------------------------------



E|-----------------0-----------------------0-----------------------0-----------------------0-----------
B|-----------------------0-----------------------0-----------0-----------0-----------------------0-----
G|-----------------------------------------------------------------------------------------------------
D|-----------2-----------------------2-----------------------------------------------4-----------------
A|-----------------------------------------------------4-----------------------2-----------------------
E|-----0-----------------------4-----------------------------------------------------------------------



E|-----------------0-----------------------0-----------------------0-----------------------0-----------
B|-----------------------0-----------------------0-----------0-----------0-----------------------0-----
G|-----------------------------------------------------------------------------------------------------
D|-----------2-----------------------2-----------------------------------------------4-----------------
A|-----------------------------------------------------4-----------------------2-----------------------
E|-----0-----------------------4-----------------------------------------------------------------------



E|-----0-----0-----0-----0-----0-----0-----0-----0-----0-----0-----0-----0-----0-----0-----0-----0-----
B|-----0-----0-----0-----0-----0-----0-----0-----0-----0-----0-----0-----0-----0-----0-----0-----0-----
G|-----1-----1-----1-----1-----2-----2-----2-----2-----6-----6-----6-----6-----4-----4-----4-----4-----
D|-----2-----2-----2-----2-----2-----2-----2-----2-----6-----6-----6-----6-----4-----4-----4-----4-----
A|-----2-----2-----2-----2-----0-----0-----0-----0-----4-----4-----4-----4-----2-----2-----2-----2-----
E|-----0-----0-----0-----0-----0-----0-----0-----0-----0-----0-----0-----0-----0-----0-----0-----0-----



E|-----0-----0-----0-----0-----0-----0-----0-----0-----0-----0-----0-----0-----0-----0-----0-----0-----
B|-----0-----0-----0-----0-----0-----0-----0-----0-----0-----0-----0-----0-----0-----0-----0-----0-----
G|-----1-----1-----1-----1-----2-----2-----2-----2-----6-----6-----6-----6-----4-----4-----4-----4-----
D|-----2-----2-----2-----2-----2-----2-----2-----2-----6-----6-----6-----6-----4-----4-----4-----4-----
A|-----2-----2-----2-----2-----0-----0-----0-----0-----4-----4-----4-----4-----2-----2-----2-----2-----
E|-----0-----0-----0-----0-----0-----0-----0-----0-----0-----0-----0-----0-----0-----0-----0-----0-----



E|-----0-----0-----0-----0-----0-----0-----0-----0-----0-----0-----0-----0-----0-----0-----
B|-----0-----0-----0-----0-----0-----0-----0-----0-----0-----0-----0-----0-----0-----0-----
G|-----2-----2-----2-----2-----2-----2-----2-----4-----4-----4-----4-----4-----4-----4-----
D|-----2-----2-----2-----2-----2-----2-----2-----4-----4-----4-----4-----4-----4-----4-----
A|-----0-----0-----0-----0-----0-----0-----0-----2-----2-----2-----2-----2-----2-----2-----
E|-----------------------------------------------------------------------------------------



E|-----0-----0-----0-----0-----0-----0-----0-----0-----0-----0-----0-----0----------
B|-----0-----0-----0-----0-----0-----0-----0-----0-----0-----0-----0-----0----------
G|-----2-----2-----2-----2-----2-----2-----2-----4-----4-----4-----4-----4----------
D|-----2-----2-----2-----2-----2-----2-----2-----4-----4-----4-----4-----4----------
A|-----0-----0-----0-----0-----0-----0-----0-----2-----2-----2-----2-----2----------
E|----------------------------------------------------------------------------------
http://www.guitartabcreator.com
Guitar Tab Creator is intended to store guitar tab created through the tool. It currently does not support in-line text editing. Any text you place in here will be lost. If you need to comment on your tab, please use the "Tab Notes" section located below.