Old Time Rock and Roll

(/) Slide Up  (\) Slide Down  (h) Hammer On  (p) Pull Off  (b) Bend (r) Release (v) Vibrato

(W|WW) Whole (H|HH) Half (Q|QQ) Quarter (E|EE) 8th (S|SS) 16th (T|TT) 32nd (X|XX) 64th


G|---------------------------------------------------------------------------------------------
D|---------------------------------------------------------------------------------------------
A|---------------------------------------------------------------------------------------------
E|------------------------------------------------------------------------------------------0--



G|-----------------|-----------------|-----------------|-----------------
D|-----------------|-----------------|-----------------|-----------------
A|-----------------|---------------0-|-1-1-1-1-1-1-1-1-|-1-1-1-1-1-1-1-2-
E|-1-1-1-1-1-1-1-1-|-1-1-1-1-1-1-1---|-----------------|-----------------



G|-----------------|---------------|-----------------|-----------------
D|-----------------|---------------|-----------------|-----------------
A|-3-3-3-3-3-3-3-3-|-3-3-3-3-3-3---|-----------------|-----------------
E|-----------------|-------------0-|-1-1-1-1-1-1-1-1-|-1-1-1-1-1-1-1-1-




G|-----------------|---------------|-----------------|-----------------
D|-----------------|---------------|-----------------|-----------------
A|-----------------|-------------0-|-1-1-1-1-1-1-1-1-|-1-1-1-1-1-1-1-2-
E|-1-1-1-1-1-1-1-1-|-1-1-1-1-1-1---|-----------------|-----------------



G|-----------------|-----------------|-----------------|-----------------
D|-----------------|-----------------|-----------------|-----------------
A|-3-3-3-3-3-3-3-3-|-3-3-3-3-3-3-3---|---------------3-|-3-3-3-3-3-3-3-3-
E|-----------------|---------------0-|-1-1-1-1-1-1-1---|-----------------




G|-----------------|-----------------|-3-3-0---0---0-3-|-3-3-0-0-----0---
D|-3-3-0---0---0-3-|-3-3-0-0-----0---|-------3---3-----|---------3-3---3-
A|-------3---3-----|---------3-3---3-|-----------------|-----------------
E|-----------------|-----------------|-----------------|-----------------



G|-5-5-2-0-2-0-2-5-|-5-5-2-2-0-0-2-0-|-----------------|-----------------
D|-----------------|-----------------|-3-3-0---0---0---|-----------------
A|-----------------|-----------------|-------3---3---3-|-3-3-3-3-3-3-3-3-
E|-----------------|-----------------|-----------------|-----------------



G|-----------------|-----------------|-----------------|---------------
D|-----------------|-----------------|-----------------|---------------
A|-----------------|---------------0-|-1-1-1-1-1-1-1-1-|-1-1-1-1-1-1-2-
E|-1-1-1-1-1-1-1-1-|-1-1-1-1-1-1-1---|-----------------|---------------




G|-----------------|-----------------|-----------------|-----------------|-----------------
D|-----------------|-----------------|-----------------|-----------------|-----------------
A|-3-3-3-3-3-3-3-3-|-3-3-3-3-3-3-3---|---------------3-|-3-3-3-3-3-3-3-3-|-3-3-3-3-3-3-3-3-
E|-----------------|---------------0-|-1-1-1-1-1-1-1---|-----------------|-----------------



G|-----------------|-----------------|-4-4-0---0---0-4-|-4-4-0-0-----0---
D|-3-3-0---0---0-3-|-3-3-0-0-----0---|-------3---3-----|---------3-3---3-
A|-------3---3-----|---------3-3---3-|-----------------|-----------------
E|-----------------|-----------------|-----------------|-----------------



G|-5-5-2-0-2-0-2-5-|-5-5-2-2-0-0-2-0-|-----------------|-----------------
D|-----------------|-----------------|-3-3-0---0---0---|-----------------
A|-----------------|-----------------|-------3---3---3-|-3-3-3-3-3-3-3-3-
E|-----------------|-----------------|-----------------|-----------------


G|-3------------------|----------|-----------------
D|--------------------|----------|-----------------
A|--------------------|--------3-|-3-3-3-3-3-3-3-3-
E|--------------------|----------|-----------------



G|-----------------|-----------------|-4-4-0---0---0-4-|-4-4-0-0-----0---
D|-3-3-0---0---0-3-|-3-3-0-0-----0---|-------3---3-----|---------3-3---3-
A|-------3---3-----|---------3-3---3-|-----------------|-----------------
E|-----------------|-----------------|-----------------|-----------------



G|-5-5-2-0-2-0-2-5-|-5-5-2-2-0-0-2-0-|-----------------|-----------------
D|-----------------|-----------------|-3-3-0---0---0-3-|-3-3-------------
A|-----------------|-----------------|-------3---3-----|---------1-1-2-1-
E|-----------------|-----------------|-----------------|-----3-3---------



G|-----------------|-----------------|-----------------|-----------------
D|-----------------|-----0-0-1-1-1-1-|-3-3-0---0---0-3-|-3-3-------------
A|-3-3-0---0---0-3-|-3-3-------------|-------3---3-----|-----0-0-1-1-2-1-
E|-------3---3-----|-----------------|-----------------|-----------------



G|-----------------|----------|-----------------|--------------|----------
D|-----------------|----------|-----------------|---2-2-3------|----------
A|-3-3-0---0---2-0-|-2--------|-----0-0-1-2-1-1-|-4------------|----------
E|-------3---3-----|----------|-1-1-------------|------------1-|-1--------
http://www.guitartabcreator.com
Guitar Tab Creator is intended to store guitar tab created through the tool. It currently does not support in-line text editing. Any text you place in here will be lost. If you need to comment on your tab, please use the "Tab Notes" section located below.