Song

(/) Slide Up  (\) Slide Down  (h) Hammer On  (p) Pull Off  (b) Bend (r) Release (v) Vibrato

E|----------------------------7--7--5--9---
B|----------------------------7--7--5--9---
G|---------------9------------9--8--6--9---
D|--9------------9--9--7--11--9--9--7--11--
A|--7--9--7--11--7--9--7--11--7--9--7--11--
E|-----7--5--9------7--5--9------7--5--9---



E|----------------------------------------7--7--5--8---
B|----------------------------------------7--7--5--8---
G|---------------------------9------------9--8--6--8---
D|--------------9------------9--9--7--11--9--9--7--10--
A|--7-----------7--9--7--11--7--9--7--11--7--9--7--10--
E|-----7--5--9-----7--5--9------7--5--9------7--5--8---
http://www.guitartabcreator.com
Guitar Tab Creator is intended to store guitar tab created through the tool. It currently does not support in-line text editing. Any text you place in here will be lost. If you need to comment on your tab, please use the "Tab Notes" section located below.