Phantom of the Opera - Iron Maiden

(/) Slide Up  (\) Slide Down  (h) Hammer On  (p) Pull Off  (b) Bend (r) Release (v) Vibrato

E|---------12---------------------------------------12--13--12h13p12------15--13h15p13-----
B|--14b16--12--15b17--15----------------------------------------------15-------------------
G|------------------------12h14--14b16--14p12--14v-----------------------------------------
D|-----------------------------------------------------------------------------------------
A|-----------------------------------------------------------------------------------------
E|-----------------------------------------------------------------------------------------



E|--12h13p12---------------------------------------------------------------12--12--13--12h13p12--
B|------------15b17------15--17b19--17--17--17b19--17b19--17--15--17-----------------------------
G|-------------------16-----------------------------------------------16v------------------------
D|-----------------------------------------------------------------------------------------------
A|-----------------------------------------------------------------------------------------------
E|-----------------------------------------------------------------------------------------------



E|------15--13h15p13--12h13p12-----------14--15--17--17--19v--17h19p17h19p17h19p17--14--17--
B|--15--------------------------15v--17-----------------------------------------------------
G|------------------------------------------------------------------------------------------
D|------------------------------------------------------------------------------------------
A|------------------------------------------------------------------------------------------
E|------------------------------------------------------------------------------------------



E|--14h17p14h17p14h17p14--12h15p12--10h12---------12--13--12h13p12------15--13h15p13--12h13p12-----
B|-----------------------------------------15b17--------------------15-----------------------------
G|-------------------------------------------------------------------------------------------------
D|-------------------------------------------------------------------------------------------------
A|-------------------------------------------------------------------------------------------------
E|-------------------------------------------------------------------------------------------------



E|-----------------------------------------------------------------------------------12--12--13--
B|--15b17------------------------------------------------------------------------12--------------
G|---------12--14--14b16--14--12--14--12--11--11h12p11--9h11p9h11p9/7h9--7--7b9------------------
D|-----------------------------------------------------------------------------------------------
A|-----------------------------------------------------------------------------------------------
E|-----------------------------------------------------------------------------------------------



E|--12h13p12------15--13h15p13--12h13--------
B|------------15-----------------------------
G|-------------------------------------------
D|-------------------------------------------
A|-------------------------------------------
E|-------------------------------------------
http://www.guitartabcreator.com
Guitar Tab Creator is intended to store guitar tab created through the tool. It currently does not support in-line text editing. Any text you place in here will be lost. If you need to comment on your tab, please use the "Tab Notes" section located below.