Land of Rest

(/) Slide Up  (\) Slide Down  (h) Hammer On  (p) Pull Off  (b) Bend (r) Release (v) Vibrato


E|--1--1--1--3--5--1--1-----------1--1--1--3--5--8--8--8---8---10--8--5--6--8--1--1-----
B|--1--1--1--5--6--3--3--3--1--1--3--3--3--5--5--8--6--10--10--10--8--3--6--5--3--3--3--
G|--0--2--2--5--5--3--3--2--2--0--2--3--2--5--5--9-----9---9---11--9--2--------3--3--2--
D|-----3--3--3--3--0--3--3--3--2--0--0--0--------8-----7--------------3--------------3--
A|--------------------------------------------------------------------------------------
E|--------------------------------------------------------------------------------------



E|-----1--5--6--3--1--
B|--1-----6--6--1--1--
G|--0--2--5--7--2--2--
D|--------------------
A|--------------------
E|--------------------
http://www.guitartabcreator.com
Guitar Tab Creator is intended to store guitar tab created through the tool. It currently does not support in-line text editing. Any text you place in here will be lost. If you need to comment on your tab, please use the "Tab Notes" section located below.