Be Thou My Vision

(/) Slide Up  (\) Slide Down  (h) Hammer On  (p) Pull Off  (b) Bend (r) Release (v) Vibrato

E|--------1-----------------------1--3--1--1--1--1--3--6--8--6--3--6--
B|--4--4-----4--1--------1--4--4--------------------------------------
G|-----------------3--3-----------------------------------------------
D|--------------------------------------------------------------------
A|--------------------------------------------------------------------
E|--------------------------------------------------------------------



E|--8--8--10--11--10--8--6--3--6-----------------3--6--8--6--3-----3--1-----------
B|--------------------------------4--3--1-----4-----------------4--------4--4--4--
G|-----------------------------------------3--------------------------------------
D|--------------------------------------------------------------------------------
A|--------------------------------------------------------------------------------
E|--------------------------------------------------------------------------------
http://www.guitartabcreator.com
Guitar Tab Creator is intended to store guitar tab created through the tool. It currently does not support in-line text editing. Any text you place in here will be lost. If you need to comment on your tab, please use the "Tab Notes" section located below.