Party Song

<PARTY SONG> *means ring out


Verse riff 0:00-0:20
G|-----------------------------------------------------------------------------------------------
D|-----------------------------------------------------------------------------------------------
A|--1--1--1--1------------------------------------1--1--1--1-----------4----4--4--4--4--4--4-----
E|--------------3--3--3--0----0--0--0--0--0--0----------------3--3--3----------------------------



BRIDGE TO FAST PART 0:20-0:32
G|------------------------------------------------------------------------------------------------
D|------------------------------------------------------------------------------------------------
A|--6--6--6--6--3--3--3---------------------------6--6--6--6--3--3--3--4----4--4--4--4--4--4------
E|-----------------------0----0--0--0--0--0--0----------------------------------------------------


G|-------------------------------------------------------------------------------------------------
D|-------------------------------------------------------------------------------------------------
A|--6--6--6--6--3--3--3---------------------------6--6--6--6--3--3--3--3--4------------------------
E|-----------------------0----0--0--0--0--0--0-----------------------------------------------------



FAST PART 0:32-0:48
G|-------------------------------------------------------------------------------
D|-------------------------------------------------------------------------------
A|--------------------4--4--4-----------------------------4--4--4----------------
E|--6--6--6--3--3--3-----------0--0--0--6--6--6--3--3--3-----------0--0--0-------



0:53-0:54
G|--------
D|--------
A|--------
E|--3--5--



0:54-finish
G|--------------------------------------------------------------------------------------------
D|--------------------------------------------------------------------------------------------
A|------------------------------------------------------------4----4--4--4--4--4--4--4--------
E|--6--5--3--3--3--0----0--0--0--0--0--0--0----6--5--3--3--3----------------------------------




G|--------------------------------------------------------------------------------------------
D|--------------------------------------------------------------------------------------------
A|--------------------------------------------------------------------------------------------
E|--6--5--3--3--3--0----0--0--0--0--0--0--0----6--5--3--3--3--0----0----0----0--3--5----------




G|--------------------------------------------------------------------------------------------
D|--------------------------------------------------------------------------------------------
A|------------------------------------------------------------4----4--4--4--4--4--4--4--------
E|--6--5--3--3--3--0----0--0--0--0--0--0--0----6--5--3--3--3----------------------------------




G|----------------------
D|----------------------
A|----------------------
E|--6--5--3--3--3--0*---
Guitar Tab Creator is intended to store guitar tab created through the tool. It currently does not support in-line text editing. Any text you place in here will be lost. If you need to comment on your tab, please use the "Tab Notes" section located below.