Demons

Bass Tab

<DEMONS>

* MEANS RING OUT

INTRO RIFF
G|---------------------------
D|---------------------------
A|---------------------------
E|-0-0--0*----------0-0--0---


VERSE RIFF

G|--------------------------------------------------------
D|--------------------------------------------------------
A|---------------2-2-3--2-2-3-----------------------------
E|-0-0-0--0-0-0----------------3-3-3--5-5-5--2-2-2--2-2-2-




G|--------------------------------------------------------
D|--------------------------------------------------------
A|---------------2-2-3--2-2-3---------------------5-5-5---
E|-0-0-0--0-0-0----------------3-3-3--5-5-5--2-2----------


BRIDGE (JUST BASS HERE)

G|---------------------------------------------------------
D|---------------------------------------------------------
A|---------------2-2-3--2-2-3------------------------------
E|-0-0-0--0-0-0----------------3-3-3--5-5-5--2-2-2--2-2-2--




G|--------------------------------------------------------------
D|--------------------------------------------------------------
A|---------------2-2-3--2-2-3-----------------------------------
E|-0-0-0--0-0-0----------------3-3-3--5-5-5--3-3--3-2-2--3-2-2--


BREAK DOWN

G|--------------------------------------------------------------------
D|--------------------------------------------------------------------
A|-----------------------------3--------------------------------------
E|-0--0-0--0-0--0-0--0-0--0-0----0-3-0--0-0--0-0--0-0--0-0--0-0--3-3--




G|---------------------------------------------------------
D|---------------------------------------------------------
A|-----------------------------3---------------------------
E|-0--0-0--0-0--0-0--0-0--0-0----0-3-3--3--3-3--2--2--3-3--


END 2 STEP RIFF

G|-----------------------------------------------------------
D|-----------------------------------------------------------
A|------------------------3----------------------------------
E|-0--0-0-0-0-0-0-0-0-0-0---0-3-0--0-0-0-0-0-0-0-0-0-0-3-3---




G|-----------------------------------------------------------
D|-----------------------------------------------------------
A|------------------------3----------------------------------
E|-0--0-0-0-0-0-0-0-0-0-0---0-3-3--3--3-3--2--2--3-3-0*------
Guitar Tab Creator is intended to store guitar tab created through the tool. It currently does not support in-line text editing. Any text you place in here will be lost. If you need to comment on your tab, please use the "Tab Notes" section located below.