Death Survivor

(/) Slide Up  (\) Slide Down  (h) Hammer On  (p) Pull Off  (b) Bend (r) Release (v) Vibrato
E|-------------------------------------
B|-------------------------------------
G|-------------------------------------
D|--------------------x-2-x-x-2--x-x-2-
A|--x-2-x-x-2--x-x-2--x-3-x-x-3--x-x-0-
E|--x-0-x-x-0--x-x-0-------------------



E|-----------------------------------------------------
B|-----------------------------------------------------
G|-----------------------------------------------------
D|-----------------------------------------------------
A|----------------2-2--3--3----------------3-3--3/5--5-
E|-0-0--0-0--0-0-------------3-3--3-3--3-3-------------



E|----------------------------------------------------
B|----------------------------------------------------
G|----------------------------------------------------
D|----------------------------------------------------
A|-----------------2-2-3-3------------------3-3--3/5--
E|-0-0-0-0-0--0-0-----------3-3-3-3-3--3-3------------



E|------------------
B|------------------
G|------------------
D|------------------
A|------------------
E|-0------0---------



E|---
B|---
G|---
D|---
A|---
E|-0-



E|--------------------------------------------------------------------
B|--------------------------------------------------------------------
G|--------------------------------------------------------------------
D|--------------------------------------------------------------------
A|---------------------------------3-3-3-3-3-3-3-3-0-0-0-0-0-0-0-0----
E|-0-0-0-0-0-0-0-0-0-0-0-0-0-0-0-0------------------------------------



E|---------------------------------------------------------
B|---------------------------------------------------------
G|-----------------------------2---------------------------
D|-------------------------2-2-2-2-2-2-2-2-2-2-2-2-2-2-2-2-
A|-------------------------3-3-3-3-3-3-3-3-0-0-0-0-0-0-0-0-
E|--0--0--0--0--0--0--0--0---------------------------------
http://www.guitartabcreator.com
Guitar Tab Creator is intended to store guitar tab created through the tool. It currently does not support in-line text editing. Any text you place in here will be lost. If you need to comment on your tab, please use the "Tab Notes" section located below.