Cold Water

(/) Slide Up  (\) Slide Down  (h) Hammer On  (p) Pull Off  (b) Bend (r) Release (v) Vibrato


E|------------------------------------------------------------------------------------------------
B|------------------------------------------------------------------------------------------------
G|------------------------------------------------------------------------------------------------
D|-------------------------------------------5--7--5-7--------------------------------------------
A|--------------------3----------------------3--5--3-5-----------------------3--------------------
E|-3-0--0-0-0-0-0-0-0---3-5-3-0--0-0-0-0-0-0-3--5--3-5--3-0--0-0-0-0-0-0-0-0---3-5-3-0--0-0-0-0-0-



E|--------------------
B|--------------------
G|--------------------
D|----5--7------------
A|----3--5------------
E|-0--3--5--0---------



E|----------------------------------------------------------------------------------------------
B|----------------------------------------------------------------------------------------------
G|----------------------------------------------------------------------------------------------
D|----------------------------------------------------------------------------------------------
A|-3-3-3--3-3-3--3-3-3--3-3-3--5-5-5--5-5-5--5-5-5--5-5-5--7-7-7--7-7-7--7-7-7--7-7-7--10-10-10-
E|----------------------------------------------------------------------------------------------



E|----------------------------------------------------------------------------------------------
B|----------------------------------------------------------------------------------------------
G|----------------------------------------------------------------------------------------------
D|----------------------------------------------------------------------------------------------
A|-10-10-10--9-9-9--9-9-9--3-3-3--3-3-3--3-3-3--3-3-3--5-5-5--5-5-5--5-5-5--5-5-5---------------
E|---------------------------------------------------------------------------------0-0-0--0-0-0-



E|--------------------------------------------------------------------------------
B|--------------------------------------------------------------------------------
G|--------------------------------------------------------------------------------
D|------------------------------------------------5-x-x-5-x-x-5--7-x-x-7-x-x-7----
A|------------------------------------------------3-x-x-3-x-x-3--5-x-x-5-x-x-5----
E|-0-0-0--0-0-0--3-3-3--3-3-3--3-3-3--3-3-3--3-3--3-x-x-3-x-x-3--5-x-x-5-x-x-5--0-



E|----------------------
B|----------------------
G|----------------------
D|----------------------
A|----------------------
E|----------------------



E|--------------------------------------------------------------------------------------------
B|--------------------------------------------------------------------------------------------
G|--------------------------------------------------------------------------------------------
D|-------------------------------------------------------------------------------------5-5-5--
A|-----------------------------3-3-3--3-3-3--3-3-3--3-3-3--5-5-5--5-5-5--5-5-5--5-5-5--2-2-2--
E|-0-0-0--0-0-0--0-0-0--0-0-0-----------------------------------------------------------------



E|--------------------------------------------------------------------------------------------
B|--------------------------------------------------------------------------------------------
G|--------------------------------------------------------------------------------------------
D|-5-5-5--------------------------------------------------------------------------------------
A|-2-2-2--------------------------------------------3-3-3--3-3-3--3-3-3--3-3-3--5-5-5--5-5-5--
E|--------3-3-3--5-5-5--0-0-0--0-0-0--0-0-0--0-0-0--------------------------------------------



E|-------------------------------------------
B|-------------------------------------------
G|-------------------------------------------
D|---------------5-5-5--5-5-5----------------
A|-5-5-5--5-5-5--2-2-2--2-2-2----------------
E|-----------------------------3-3-3--5-5-5--



E|-----------------------------------------------------------------------------------
B|-----------------------------------------------------------------------------------
G|-----------------------------------------------------------------------------------
D|--------------------------------5-5-3-3-6-6-5--------------------------------------
A|-------3---------------3--------3-3-1-1-4-4-3--------3------------------3----------
E|-0--0----0-3-0----0--0---0-3-0--3-3-1-1-4-4-3--0--0----0-3-0--0----0--0---0-3-0----



E|------------------------------------
B|------------------------------------
G|------------------------------------
D|-5-5-3-3-6-6-5----------------------
A|-3-3-1-1-4-4-3-------3--------------
E|-3-3-1-1-4-4-3--0--0---0-3-0--------
http://www.guitartabcreator.com
Guitar Tab Creator is intended to store guitar tab created through the tool. It currently does not support in-line text editing. Any text you place in here will be lost. If you need to comment on your tab, please use the "Tab Notes" section located below.