The Chase

"THE CHASE"



The Chastro
G|------------------------------
D|-----3---2--------------------
A|-2---2---0---2----------------
E|-0-----------0---0--0-0-0--0--



VERSE RIFF
G|------------------------------------------------------------------------------------------- X2
D|-------------------------------------------------------------------------------------------
A|-3-3-3--3-3-3--5-5-5--5-5-5--7-7-7--7-7-7--5-5-5--5-7-5--3-3-3--3-3-3--2-2-2--2-2-2--2-2---
E|-----------------------------------------------------------------------------------------0-



BREAK DOWN PART
G|----------------------------------------------------
D|---------------------------------------------------- X2
A|-7-7-7-7-7------------------------------------------
E|-0-0-0-0-0--0--0--0-0--0--0-0-0--0-0--0--0--0-0-0---




G|----------------------------------------------------
D|---------------------------------------------------- X2
A|-7-7-7-7-7------------------------------------------
E|-0-0-0-0-0--0--0-0-0-0-0-0-0-0-0-0-0-0-0-0-0-0------


NO ONES ALONE PART

G|---------------------------------------------
D|-------------------------------------2-------
A|------------3-5--------------------3---3-----
E|----------------0----------------------------



WE ARE NOTHING CROWD CHANT PART
G|----------------------------------------------------
D|----------------------------------------------------
A|-3-3--3--3-----3-3--3-3-2-2-2-----------------------
E|-------------------------------0-0--0--0--0-0--0--0-




G|-------------------------------------------------
D|-------------------------------------------------
A|-3-3--3--3--3-3--3-3-5-5-5-----------------------
E|----------------------------0-0--0--0--0-0--0--0-



FINAL RING OUT
G|---------------------
D|--2------2-----------
A|--3------0--------2--
E|------------------0--
http://www.guitartabcreator.com
Guitar Tab Creator is intended to store guitar tab created through the tool. It currently does not support in-line text editing. Any text you place in here will be lost. If you need to comment on your tab, please use the "Tab Notes" section located below.