5412

(/) Slide Up  (\) Slide Down  (h) Hammer On  (p) Pull Off  (b) Bend (r) Release (v) Vibrato


E|-----------------------------------------------------------------------
B|-----------------------------------------------------------------------
G|-----------------------------------------------------------------------
D|-2------2--2-----2-----------------------------------------------------
A|-3------3--3-----3-----------------------------------------------------
E|--------------------0------3--0------0--0-0-0-0-0-0-0-0-0-0-0-0-0-0--0-



E|-----------------------------------------------------------------------------------------
B|-----------------------------------------------------------------------------------------
G|-----------------------------------------------------------------------------------------
D|-----------------------------------------------------------------------------------------
A|-7-7-7--7-7-7--7-7-7--7-7-7--5-5-5--5-5-5--3-3-3--5-5-5--5-5-----------------------------
E|--------------------------------------------------------------0-0--0-3-0--0--0-0--0-3-5--



E|------------------------------------------------------------------------------------------
B|------------------------------------------------------------------------------------------
G|------------------------------------------------------------------------------------------
D|------------------------------------------------------------------------------------------
A|-3-3-3--3-3-3--5-5-5--5-5-5--7-7-7--7-7-7--7-7-7--7-7-7--7-10-10--9-9-9--10-10-10--9-9-9--
E|------------------------------------------------------------------------------------------



E|-----------------------------------------------------------
B|-----------------------------------------------------------
G|-----------------------------------------------------------
D|----------------------------------2------2--2------2-------
A|-3-3-3--3-3-3--5-5-5--5-5-5--5-5--3------3--3------3-------
E|-----------------------------------------------------------



E|-----------------------------------------------------------------------------------
B|-----------------------------------------------------------------------------------
G|-----------------------------------------------------------------------------------
D|------------------------------------------2--2--2--2--2-2-2-2--2--2--2--2--2-2-2-2-
A|------------------------------------------3--3--3--3--3-3-3-3--3--3--3--3--3-3-3-3-
E|-0--0--0--0--0-0-0-0--0--0--0--0--0-0-0-0------------------------------------------



E|-----------------------------------------------------------------------------------
B|-----------------------------------------------------------------------------------
G|-----------------------------------------------------------------------------------
D|------------------------------------------2--2--2--2--2-2-2-2--3--2--2--2--2-2-2-2-
A|------------------------------------------3--3--3--3--3-3-3-3--3--3--3--3--3-3-3-3-
E|-0--0--0--0--0-0-0-0--0--0--0--0--0-0-0-0------------------------------------------



E|--------------------------------------------------------------------------------------------------
B|--------------------------------------------------------------------------------------------------
G|--------------------------------------------------------------------------------------------------
D|--------------------------------------------------------------------------------------------------
A|--------------------------------------------------------------------------------------------------
E|-0--0-0-0-0-0-0-0-0-0-0-0-0-0-0-0-0-0-0-0-0-0-0-0-0-0-0-0-0-0-0--0--0-0-0-0-0-0-0-0-0-0-0-0-0-0-0-



E|-----------------
B|-----------------
G|-----------------
D|-----------------
A|-----------------
E|-0-0-0-0-0-0-0-0-



E|----------------------------------------------------------------
B|----------------------------------------------------------------
G|----------------------------------------------------------------
D|----------------------------------------------------------------
A|----------------------------------------------------------------
E|-0-0--0--0----0-0--0--0-----0-0--0--0-------0-0--0--0-----------



E|------------------------------------------------------------------------
B|------------------------------------------------------------------------
G|------------------------------------------------------------------------
D|------------------------------------------------------------------------
A|-7-7--7---------7-7--7---------7-7--7--------7-7------7-7--5--7---------
E|---------0--------------0-------------0-----------0--------------0------
http://www.guitartabcreator.com
Guitar Tab Creator is intended to store guitar tab created through the tool. It currently does not support in-line text editing. Any text you place in here will be lost. If you need to comment on your tab, please use the "Tab Notes" section located below.