Original Song #2 (Drop D)

(/) Slide Up  (\) Slide Down  (h) Hammer On  (p) Pull Off  (b) Bend (r) Release (v) Vibrato


E|---------------
B|---------------
G|---------------
D|----------7h5--
A|--0--4h5-------
E|---------------



E|----------------
B|----------------
G|----------------
D|----------4--2--
A|--0--4h5--------
E|----------------



E|---------------
B|---------------
G|---------------
D|----7----11----
A|----5----7-----
E|----5----7-----
http://www.guitartabcreator.com
Guitar Tab Creator is intended to store guitar tab created through the tool. It currently does not support in-line text editing. Any text you place in here will be lost. If you need to comment on your tab, please use the "Tab Notes" section located below.