Song 2 :3

(/) Slide Up  (\) Slide Down  (h) Hammer On  (p) Pull Off  (b) Bend (r) Release (v) Vibrato

E|--------
B|--------
G|--7-----
D|--7--7--
A|--5--7--
E|-----7--



E|--------------|--------
B|--------------|--------
G|--------------|--------
D|--5--0--------|--5--7--
A|--5--0--------|--5--7--
E|--5--0--------|--5--7--



E|---------------|--------------------------|-------|--
B|---------------|--------------------------|-------|--
G|---------------|--------------------------|-------|--
D|--9--5h7--7h9--|--9h11--------12h14--7h9--|--5h7--|--
A|--9--5----7----|--9-----------12-----7----|--5----|--
E|--9--5----7----|--9-----------12-----7----|--5----|--
http://www.guitartabcreator.com
Guitar Tab Creator is intended to store guitar tab created through the tool. It currently does not support in-line text editing. Any text you place in here will be lost. If you need to comment on your tab, please use the "Tab Notes" section located below.