Song 1 :P

(/) Slide Up  (\) Slide Down  (h) Hammer On  (p) Pull Off  (b) Bend (r) Release (v) Vibrato
E|------------------
B|------------------
G|--9--5--2--4/5\4--
D|--7--3--0--2------
A|--7--3--0--2------
E|--7--3--0--2------



E|--------------
B|--------------
G|--9--5--7--4--
D|--9--5--7--4--
A|--7--3--5--2--
E|--------------



E|------------------
B|------------------
G|--------9--7--11--
D|-----7--x--x--x---
A|-----7--7--5--9---
E|-----7------------



E|-----------
B|-----------
G|-----9-----
D|--7--x--5--
A|--7--7--5--
E|--7-----5--
http://www.guitartabcreator.com
Guitar Tab Creator is intended to store guitar tab created through the tool. It currently does not support in-line text editing. Any text you place in here will be lost. If you need to comment on your tab, please use the "Tab Notes" section located below.