Guns n Dogs Guitar

(/) Slide Up  (\) Slide Down  (h) Hammer On  (p) Pull Off  (b) Bend (r) Release (v) Vibrato


E|--------------3--------
B|--------4--------4-----
G|--5--5-----5--------5--
D|-----------------------
A|-----------------------
E|-----------------------



E|--------------1--------
B|--------3--------3-----
G|--3--3-----3--------3--
D|-----------------------
A|-----------------------
E|-----------------------



E|-----------------8---------
B|----------9---------9------
G|--10--10-----10--------10--
D|---------------------------
A|---------------------------
E|---------------------------



E|--------------3-----------
B|--------4--------4--------
G|--5--5-----5--------5--5--
D|--------------------------
A|--------------------------
E|--------------------------
http://www.guitartabcreator.com
Guitar Tab Creator is intended to store guitar tab created through the tool. It currently does not support in-line text editing. Any text you place in here will be lost. If you need to comment on your tab, please use the "Tab Notes" section located below.