Last Night's Victory

Fix It (Intro)

F#|--------------
C#|--------------
G#|--------------
C#|--3--5--0--0--
A#|--------------

Come Get Some

Riff

F#|---------------------------------------------------------------------------
C#|---------------------------------------------------------------------------
G#|----------------5-------------------------------5----3---------------------
C#|--000-000-0-3-5---000-000-0-3-5-0-000-000-0-3-5---3-5--3-5-6-0-3-6-5-3-5-0-
A#|---------------------------------------------------------------------------

Verse

F#|----------------------------------------------------------------------------
C#|----------------------------------------------------------------------------
G#|------------------------------------------------5-----3---------------------
C#|--000-000-0-3-5-0-000-000-0-3-5-0-000-000-0-3-5---3-5---3-5-6-0-3-6-5-3-5-0-
A#|----------------------------------------------------------------------------

Bridge

F#|----------------------------------------------------
C#|----------------------------------------------------
G#|----------------------------------------------------
C#|--3333333333333333-5555555555555555-000-000-000-000-
A#|----------------------------------------------------

Chorus

F#|-----------------------------------------------------------------------
C#|-----------------------------------------------------------------------
G#|-----------------------------------------------------------------------
C#|--5555555555555555-3333333333333333-1111111111111111-33333333-44444444-
A#|-----------------------------------------------------------------------

Heavy Bit

F#|----------------------------------------------------------
C#|----------------------------------------------------------
G#|------------------------------------------------------3-5-
C#|--0-3-6-5-3-5-0-0-3-6-5-3-5-0-0-3-6-5-3-5-0-0-3-6-5-3-----
A#|----------------------------------------------------------

Guitar Tab Creator is intended to store guitar tab created through the tool. It currently does not support in-line text editing. Any text you place in here will be lost. If you need to comment on your tab, please use the "Tab Notes" section located below.