Love in Vain Mick Taylor Live Solo

(/) Slide Up  (\) Slide Down  (h) Hammer On  (p) Pull Off  (b) Bend (r) Release (v) Vibrato
E|-----------------------------10-------------------------------------------
B|---------------8-10b11-10b11----10b11-10b11-8-----8---10b11-10b11-11-10---
G|-----------7h9--------------------------------7h9---9---------------------
D|-----5-7h9----------------------------------------------------------------
A|-5h7----------------------------------------------------------------------
E|--------------------------------------------------------------------------



E|---------------10-9-8----8--------------------------------------13-------------------------------
B|-8h10-8-1/8-11--------11---11-8---11p8-11---11p8-11-13b15-13b15----13b15-13b15r13p11----13-11----
G|--------------------------------9---------9------------------------------------------12-------12-
D|-------------------------------------------------------------------------------------------------
A|-------------------------------------------------------------------------------------------------
E|-------------------------------------------------------------------------------------------------



E|----------------------------------------------------------------------8b10--8h10p6-----6--
B|--11--13--15--13--11--11------------------------------------------------------------8-----
G|--------------------------12--10--12--10-------------------------3h5----------------------
D|------------------------------------------------------------3h5---------------------------
A|------------------------------------------3p1-----3p1--3h5--------------------------------
E|-----------------------------------------------3------------------------------------------



E|-------15----13-15-15-------------------------15-------------------------------20b21-20b21-
B|-15-15----15----------18-15----15----------------18-15----------------------15-------------
G|----------------------------17----15-15h16h17----------17b19r17p15-17----15----------------
D|----------------------------------------------------------------------17-------------------
A|-------------------------------------------------------------------------------------------
E|-------------------------------------------------------------------------------------------



E|-20-18-------18-------13-------13--------------------------------------
B|-------20-18----18-20----15-13----15-13-13-13-13-11----13----11h12-----
G|----------------------------------------------------12----12-------12--
D|-----------------------------------------------------------------------
A|-----------------------------------------------------------------------
E|-----------------------------------------------------------------------
http://www.guitartabcreator.com
Guitar Tab Creator is intended to store guitar tab created through the tool. It currently does not support in-line text editing. Any text you place in here will be lost. If you need to comment on your tab, please use the "Tab Notes" section located below.