My O'l Friend John

(/) Slide Up  (\) Slide Down  (h) Hammer On  (p) Pull Off  (b) Bend (r) Release (v) Vibrato
E|----------------------------------------------------------------------------------
B|----------------------------------------------------------------------------------
G|--------------------7--------4--7--5--4-----7------------7-------7--2-------------
D|---------11--9---------5--5--------------5--7-------7h9-----7h9-----2-------2-----
A|--11/12--12--10--9-----7--------------------0--8h9------------------0--3h4-----0--
E|----------------------------------------------------------------------------------



E|--3-----------------3-----2--------2----------------------------------------------
B|--0--------------0-----------3--------3-------------------------------------------
G|--0-----------0-----------------2--------2--7------------7-------7--2-------------
D|--0--------0-----------0--------------------7-------7h9-----7h9-----2-------2-----
A|--2-----2-----------------------------------0--8h9------------------0--3h4-----0--
E|--3--3----------------------------------------------------------------------------



E|--3-----------------3--2-----------0-----------------------0--------------------------------
B|--0--------------0-----3--3--------0--------------------0--1-----------1--------------------
G|--0-----------0--------2-----2-----0-----------------0-----0--------0--------4--7--5--4-----
D|--0--------0-----------0--------0--2------------0h2--------2-----2--------5-----------------
A|--2-----2--------------------------2-------0h2-------------3--3-----------------------------
E|--3--3-----------------------------0--0h3------------------3--------------------------------



E|--------------------------0-----------------------------------------------------------------
B|--------------------------1-----------1------------------------------------------12--15-----
G|--------------------------0--------0----------------------------------8--12--14-------------
D|--7--5--4-----------------2-----2---------------------------7--9--12------------------------
A|-----------7--5v--7--5\0--3--3--------------------5--7--10----------------------------------
E|--------------------------3--------------3--5--7--------------------------------------------



E|--12--------------------------------------------3-----------------3-----2--------2--------
B|------14----------------------------------------0--------------0-----------3--------3-----
G|----------7------------7-------7--2-------------0-----------0-----------------2--------2--
D|----------7-------7h9-----7h9-----2-------2-----0--------0-----------0--------------------
A|----------0--8h9------------------0--3h4-----0--2-----2-----------------------------------
E|------------------------------------------------3--3--------------------------------------



E|----------------------------------------3-----------------3--2--2-----------0------------
B|----------------------------------------0--------------0-----3-----3--------0------------
G|--7------------7-------7--2-------------0-----------0--------2--------2-----0------------
D|--7-------7h9-----7h9-----2-------2-----0--------0-----------0-----------0--2------------
A|--0--8h9------------------0--3h4-----0--2-----2-----------------------------2-------0h2--
E|----------------------------------------3--3--------------------------------0--0h3-------



E|-------------0----------------------------------------------------------------
B|----------0--1-----------1----------------------------------------------------
G|-------0-----0--------0--------4--7--5--4-------------------------------------
D|--0h2--------2-----2--------5--------------7--5--4--------------12------------
A|-------------3--3-----------------------------------5/7--9--12------9--12-----
E|-------------3----------------------------------------------------------------



E|--------------------------------------------------------------------------------
B|------14--17--15p14------14----------12--15--13p12------------------------------
G|--14-----------------16------14--12-----------------12--------------------------
D|---------------------------------------------------------------11--9------7--5--
A|--------------------------------------------------------11/12--12--10--9-----7--
E|--------------------------------------------------------------------------------



E|----------------------------------------------------------3-----------------3--
B|----------------------------------------------------------0--------------0-----
G|-----4--7--5--4-----7------------7-------7--2-------------0-----------0--------
D|--5--------------5--7-------7h9-----7h9-----2-------2-----0--------0-----------
A|--------------------0--8h9------------------0--3h4-----0--2-----2--------------
E|----------------------------------------------------------3--3-----------------



E|--2--2-------------------------------------------------3-----------------3--2--
B|--3-----3----------------------------------------------0--------------0-----3--
G|--2--------2-----7------------7-------7--2-------------0-----------0--------2--
D|--0-----------0--7-------7h9-----7h9-----2-------2-----0--------0-----------0--
A|-----------------0--8h9------------------0--3h4-----0--2-----2-----------------
E|-------------------------------------------------------3--3--------------------



E|--2--------------7--------5-----0--0--------3-----7--------5--------9---------
B|-----3--------------8--------6--1-----1-----0--------8--------6--------10--3--
G|--------2-----7--------5--------0--------0--0--7--------5--------9---------2--
D|-----------0--------------------2-----------0------------------------------0--
A|--------------------------------3-----------2---------------------------------
E|--------------------------------3-----------3---------------------------------



E|--2-----5--7--2--2-----9---9---------2--2-----5--7--2--2--------9------2--2-----
B|-----3--6--8--3-----3--10-----10-----3-----3--6--8--3-----3--------10--3-----3--
G|--------5--7--2--------9----------9--2--------5--7--2--------9---------2--------
D|--------------0----------------------0--------------0------------------0--------
A|--------------------------------------------------------------------------------
E|--------------------------------------------------------------------------------



E|--5--7--3p2p0--------------2--------
B|--6--8---------3p2p0-------3--3/15--
G|--5--7----------------2/4--2--------
D|---------------------------0--------
A|------------------------------------
E|------------------------------------
http://www.guitartabcreator.com
Guitar Tab Creator is intended to store guitar tab created through the tool. It currently does not support in-line text editing. Any text you place in here will be lost. If you need to comment on your tab, please use the "Tab Notes" section located below.