Mornings with Jeanne by Charles Corrigan - June 21 2013

(/) Slide Up  (\) Slide Down  (h) Hammer On  (p) Pull Off  (b) Bend (r) Release (v) Vibrato

E|-------------------------------2--0--0-------------------------------2--0--0--
B|-------------------------------3--3--3-------------------------------3--3--3--
G|-------------------------------2--0--0-------------------------------2--0--0--
D|--------7v-----6---------------0--2--0--------7v-----6---------------0--2--0--
A|--5--8------5-----8--5--3h5\0-----3--2--5--8------5-----8--5--3h5\0-----3--2--
E|-------------------------------------3-------------------------------------3--



E|--0--------------0--3--------------x--x---------------x----------------------------
B|--1-----------1--1--0-----------0--5--7---------------7----------------------------
G|--0--------0-----0--0--------0-----5--7------------7--7----------------------------
D|--2-----2--------2--0-----0--------5--7-------7h9-----7-------7--5-----------------
A|--3--3-----------3--2--2-----------------8h9-------------8h9--------5--4--2--0-----
E|--3--------------3--3--------------------------------------------------------------



E|------------------------------------------------------2--0--0-----0--0--2--
B|------------------------------------------------------3--3--3-----3--3--3--
G|------------2------------------------0----------------2--0--0-----0--0--2--
D|-------2h4----------------------0h2-----0h2--0-----0--0--2--0-----0--0--0--
A|--3h4----------4--3--2-----0h2------------------2--------3--2-----2--2-----
E|------------------------3-----------------------------------3--3--3--3-----



E|--9---9---------9--7----5--3--2--2-----9---9---------9--7-----5--------3--------2-----
B|--10-----10--------8----7--5--3-----3--10-----10--------8--------7--------5--------3--
G|--9----------9-----7----7--4--2--------9----------9-----7--7--------4--------2--------
D|--0----------------0----0--0--0--------0----------------0-----------------------------
A|--------------------------------------------------------------------------------------
E|--------------------------------------------------------------------------------------



E|--2--0--0--2-----2--0--0--2-----2--0--0-----0--0--
B|--3--3--3-----3--3--3--3-----3--3--3--3-----3--3--
G|--2--0--0--------2--0--0--------2--0--0-----0--0--
D|--0--2--0--------0--2--0--------0--2--0-----0--0--
A|-----3--2-----------3--2-----------3--2-----2--2--
E|--------3--------------3--------------3--3--3--3--
http://www.guitartabcreator.com
Guitar Tab Creator is intended to store guitar tab created through the tool. It currently does not support in-line text editing. Any text you place in here will be lost. If you need to comment on your tab, please use the "Tab Notes" section located below.