none

(/) Slide Up  (\) Slide Down  (h) Hammer On  (p) Pull Off  (b) Bend (r) Release (v) Vibrato

E|--------------------------------------------------------
B|--------------------------------------------------------
G|--------------------------------------------------------
D|--------------------------------------------------------
A|--------------------------------------------------------
E|--19/3p0--7--8--5--0--7--8--3--0--7--8--5--0--7--8--12--



E|--------------------------------------------------------------
B|--------------------------------------------------------------
G|--------------------------------------------------------------
D|--------------1--------------3--------------1--------------0--
A|--------------------------------------------------------------
E|--0--0--1--3-----0--0--1--3-----0--0--1--3-----0--0--1--3-----



E|--------------------------------------------------------------------------------------------------
B|--------------------------------------------------------------------------------------------------
G|--------------------------------------------------------------------------------------------------
D|--------2--------3-----2--------2--------3-----2--------------------------------------------------
A|--0--0-----0--0-----0-----3--3-----3--3-----3-----------2--------3-----2--------1--------2-----1--
E|--------------------------------------------------3--3-----3--3-----3-----1--1-----1--1-----1-----



E|----------------------------------------------------------------------------------
B|----------------------------------------------------------------------------------
G|----------------------------------------------------------------------------------
D|--12--14--15--12--14--17--19--20--17--19--15--17--19--15--17--14--15--17--14--15--
A|----------------------------------------------------------------------------------
E|----------------------------------------------------------------------------------



E|-----
B|-----
G|-----
D|-----
A|-----
E|--0--
http://www.guitartabcreator.com
Guitar Tab Creator is intended to store guitar tab created through the tool. It currently does not support in-line text editing. Any text you place in here will be lost. If you need to comment on your tab, please use the "Tab Notes" section located below.