blood farmer-BloodField

(/) Slide Up  (\) Slide Down  (h) Hammer On  (p) Pull Off  (b) Bend (r) Release (v) Vibrato
E|--------------------------------------------------------------
B|--------------------------------------------------------------
G|--------------------------------------------------------------
D|--------------------------------------------------------------
A|-----------7--5--7--5-----------5--3--5--3--------------------
E|--5--5--5--------------3--3--3--------------4--2--2--4--2--2--



E|--------------------------------------------------------------------------
B|--------------------------------------------------------------------------
G|--------------------------------------------------------------------------
D|-----------------2-----------------3-----------------2-----------------0--
A|--------------------------------------------------------------------------
E|--0--0--0--2--3-----0--0--0--2--3-----0--0--0--2--3-----0--0--0--2--3-----



E|--------------------------------------------------------------------------------------------------
B|--------------------------------------------------------------------------------------------------
G|--------------------------------------------------------------------------------------------------
D|--------2--------3-----2--------2--------3-----2--------------------------------------------------
A|--0--0-----0--0-----0-----3--3-----3--3-----3-----------2--------3-----2--------1--------2-----1--
E|--------------------------------------------------3--3-----3--3-----3-----1--1-----1--1-----1-----



E|--------------------------------------------------------------
B|--------------------------------------------------------------
G|--------------------------------------------------------------
D|--------------------------------------------------------------
A|-----------7--5--7--5-----------5--3--5--3--------------------
E|--5--5--5--------------3--3--3--------------4--2--2--4--2--2--



E|--------------------------------------
B|--------------------------------------
G|--------------------------------------
D|--------------------------------------
A|--------------------------------------
E|--0--1--2--4--2--1--------------------
http://www.guitartabcreator.com
Guitar Tab Creator is intended to store guitar tab created through the tool. It currently does not support in-line text editing. Any text you place in here will be lost. If you need to comment on your tab, please use the "Tab Notes" section located below.