Crumble

(/) Slide Up  (\) Slide Down  (h) Hammer On  (p) Pull Off  (b) Bend (r) Release (v) Vibrato
E|-----------------------------------------------------------------------------
B|-----------------------------------------------------------------------------
G|--------11--11--11--------7--7--8--8-----------------------------------------
D|-----------------------------------------------------------------------------
A|--0--0--9---9---9---0--0--5--5--6--6--0--0-----------------0--0--5--5--6--6--
E|--0--0--------------0--0--------------0--0--4--4--4--4--0--0--0--7--7--8--8--



E|--------------------------------------|--------------------|--------
B|--------------------------------------|--------------------|--------
G|--------11--11--11--------7--7--7--8--|--------------------|--------
D|--------------------------------------|--------2--2--2--2--|--------
A|--0--0--9---9---9---0--0--5--5--5--6--|--0--0--2--2--2--2--|--0--0--
E|--0--0--------------0--0--------------|--0--0--2--2--2--2--|--0--0--



E|----------------------------------|--------------------------
B|----------------------------------|--------------------------
G|----------------------------------|--------------------------
D|----------------------------------|--------------------------
A|--0--0----0----0--0----0----0--0--|--0--1--3--0--4--3--0--1--
E|--0--0----0----0--0----0----0--0--|--0--1--3--0--4--3--0--1--



E|--------------------------------------------------------------
B|--------------------------------------------------------------
G|--------------------------------------------------------------
D|--5--8\--1--1--------1h3--3--3--5--8\--1--1--------1p0--0--0--
A|--5--8---1--1--1--1--1-3--3--3--5--8---1--1--1--1--1-0--0--0--
E|--5--8---1--1--1--1--1-3--3--3--5--8---1--1--1--1--1-0--0--0--



E|---------------------------------------------------------------
B|---------------------------------------------------------------
G|---------------------------------------------------------------
D|--5--8\--1--1--------1h3--3--3--1----1--1--1--1p0--0--------3--
A|--5--8---1--1--1--1--1-3--3--3--1----1--1--1--1-0--0--0--0--3--
E|--5--8---1--1--1--1--1-3--3--3--1----1--1--1--1-0--0--0--0--3--



E|------------------------|------------------------------------------------
B|------------------------|------------------------------------------------
G|------------------------|------------------------------------------------
D|------------------------|------------------------------7--7--8--8--------
A|------------------------|------------------------------------------7--7--
E|--0--0--0----0--0--0----|--0--0--0----0--0--0----0--0--------------------



E|------------------------------------------------
B|------------------------------------------------
G|------------------------------------------------
D|------------------------------------------------
A|------------------------------5--5--6--6--------
E|--0--0--0----0--0--0----0--0--------------7--7--
http://www.guitartabcreator.com
Guitar Tab Creator is intended to store guitar tab created through the tool. It currently does not support in-line text editing. Any text you place in here will be lost. If you need to comment on your tab, please use the "Tab Notes" section located below.