december flower 2

(/) Slide Up  (\) Slide Down  (h) Hammer On  (p) Pull Off  (b) Bend (r) Release (v) Vibrato


E|--13--15--11--13--------------------------------------------------------------------------
B|------------------15--16--13--15--11--13--------------------------------------------------
G|------------------------------------------13--15--12--13--10--12--------------------------
D|------------------------------------------------------------------13--15--12--13--10--12--
A|------------------------------------------------------------------------------------------
E|------------------------------------------------------------------------------------------



E|----------------------------------------16b18--15h16--15-----
B|-------------------------------------------------------------
G|-------------------------------------------------------------
D|------------------10--10--12h13p12--10-----------------------
A|--13--15--11--13---------------------------------------------
E|-------------------------------------------------------------



E|--20---------18-------------------------------------------15h16--15-----------------------
B|------18b20------16b18--15--13---------11----------------------------16b18--16p15--16-----
G|--------------------------------10b12------8b10--7-----8----------------------------------
D|----------------------------------------------------8-------------------------------------
A|------------------------------------------------------------------------------------------
E|------------------------------------------------------------------------------------------
http://www.guitartabcreator.com
Guitar Tab Creator is intended to store guitar tab created through the tool. It currently does not support in-line text editing. Any text you place in here will be lost. If you need to comment on your tab, please use the "Tab Notes" section located below.