december flower 1

(/) Slide Up  (\) Slide Down  (h) Hammer On  (p) Pull Off  (b) Bend (r) Release (v) Vibrato

E|-----------------------------------------13--------------16--15--
B|-------------------------------13h15h16------16--15--13----------
G|---------------------------12------------------------------------
D|----------------10--12h13----------------------------------------
A|------------10---------------------------------------------------
E|--8--10h11-------------------------------------------------------



E|--13h15h13--11--10--8--11b13--11--10--8-------------------------------------------------
B|-----------------------------------------11--10--8--7--10b12--8--10--8--7--8--10--7--8--
G|----------------------------------------------------------------------------------------
D|----------------------------------------------------------------------------------------
A|----------------------------------------------------------------------------------------
E|----------------------------------------------------------------------------------------



E|----------15--18--16--15--------------------------------------------------------------------------
B|------16------------------18--16--15--------------------------------------------------------------
G|--17----------------------------------17--15--13--12----------------------------------------------
D|------------------------------------------------------18--15--17------15--------------------------
A|------------------------------------------------------------------18------17--18--15--17------15--
E|------------------------------------------------------------------------------------------18------



E|--------------------------------------10-----8--6--6--4--3--4-----
B|------------------------------11--13---------8--7--7--5--3--5-----
G|--------------------------10--------------------------------------
D|----------------------12------------------------------------------
A|------------------13----------------------------------------------
E|--15--16--15--18--------------------------------------------------



E|-----------------------------------3--------------------------------------13--15--16-----
B|--------------------------3--4--6-----------------------------13--15--16-----------------
G|--------------------3--5--------------------------12--13--15-----------------------------
D|-----------3--5--6--------------------12--13--15-----------------------------------------
A|--3--5--6--------------------------------------------------------------------------------
E|-----------------------------------------------------------------------------------------



E|--15--13---------------------16--18b20--16--16b18--15--16--18--16h18h16----------13--15--11--
B|----------16--15--17--15b17----------------------------------------------15------------------
G|-----------------------------------------------------------------------------17--------------
D|---------------------------------------------------------------------------------------------
A|---------------------------------------------------------------------------------------------
E|---------------------------------------------------------------------------------------------



E|--13--10--11------10---------------------------------------------------------------------------
B|--------------13------11--13--9--11--8--9------8-----------------------------------------------
G|-------------------------------------------10-----8--10--7--8------7--8------------------------
D|---------------------------------------------------------------10--------10--------------------
A|-----------------------------------------------------------------------------11--11h13h11--10--
E|-----------------------------------------------------------------------------------------------



E|--
B|--
G|--
D|--
A|--
E|--
http://www.guitartabcreator.com
Guitar Tab Creator is intended to store guitar tab created through the tool. It currently does not support in-line text editing. Any text you place in here will be lost. If you need to comment on your tab, please use the "Tab Notes" section located below.