wrecking ball

(/) Slide Up  (\) Slide Down  (h) Hammer On  (p) Pull Off  (b) Bend (r) Release (v) Vibrato

E|---------------------------------------------------------------2-------2-------2-------2-------
B|---3-3-3-3-3-3-3-3-3-3-3-3-3-3-3-3-2-2-2-2-2-2-2-2-3-3-3-3-3-3-----0-------0-------------------
G|---2-2-2-2-2-2-2-2-2-2-2-2-2-2-2-2-2-2-2-2-2-2-2-2-0-0-0-0-0-0-----2-------2-------2-------2---
D|-----------------------------------------------------------------------------------2-------2---
A|-x-2-----------2-------------------0-----------0-----------------2-2-2---2-2-2-----------------
E|-x-----------------0-----------0-------------------5-------5-------------------0-0-0-0-0-0-0-0-



E|----------------------------------------2-------2-------2-------2-----------------------------
B|---2v---------2r0---2/3-0-------------------0-------0---------------------2r0---------2/3-0---
G|-2----------------------0-------------------2-------2-------2-------2---2-----------------0---
D|------------------------0-----------------------------------2-------2---------------------0---
A|---0--0-0-0-0-0---0-0---------------------2-2-2---2-2-2-------------------0---0-0-0-0-0-------
E|------------------------5-5-5-5-5-5-5-5-----------------0-0-0-0-0-0-0-0-------------------5-5-



E|-----------------------------------------------------------------------------------------------
B|-------------0---0---0-------0---0---0-----------------------------------------0---0---0-------
G|-----------------------2---------------2-----2---2---2-0---------------------------------2-----
D|-------------------------4---------------4---------------4---0-----------------------------4---
A|-------------2-2-2-2-2-2-2-2-----------------0-0-0-0-0-0-0-0-------------------2-2-2-2-2-2-2-2-
E|-5-5-5-5-5-5-----------------0-0-0-0-0-0-0-0-------------------5-5-5-5-5-5-5-5-----------------



E|-----------------------------------------------------------------------------
B|--0-----0-----0--------------------------------------------------------------
G|-----------------2--------2-----2-----2--0-----------------------------------
D|--------------------4-----------------------4-----0--------------------------
A|--------------------------0--0--0--0--0--0--0--0-----------------------------
E|--0--0--0--0--0--0--0--0-----------------------------5--5--5--5--5--5--5--5--
http://www.guitartabcreator.com
Guitar Tab Creator is intended to store guitar tab created through the tool. It currently does not support in-line text editing. Any text you place in here will be lost. If you need to comment on your tab, please use the "Tab Notes" section located below.