untitled

(/) Slide Up  (\) Slide Down  (h) Hammer On  (p) Pull Off  (b) Bend (r) Release (v) Vibrato

E|---------------------------------------------------------------------
B|---------------------------------------------------------------------
G|------15--16------15--16------15--16------15--16------15--16--15-----
D|--16----------15----------13----------13----------13-----------------
A|---------------------------------------------------------------------
E|---------------------------------------------------------------------



E|---------------------------------------------------------------------
B|---------------------------------------------------------------------
G|------15--16------15--16------15--16------15--16------15--16--15-----
D|--16----------15----------13----------13----------13-----------------
A|---------------------------------------------------------------------
E|---------------------------------------------------------------------



E|------------------------------------------------------------------
B|------------------------------------------------------------------
G|------15--16------15--16------15--16------15--16------15--16--15--
D|--16----------15----------13----------13----------13--------------
A|------------------------------------------------------------------
E|------------------------------------------------------------------



E|------------------------------------------------------------------------------------------
B|------------------------------------------------------------------------------------------
G|------------------------------------------------------------------------------------------
D|--18--16--15--16--15--13------13--15--16--15--18--16--15--16--15--13------13--15--16--13--
A|--------------------------16------------------------------------------16------------------
E|------------------------------------------------------------------------------------------
http://www.guitartabcreator.com
Guitar Tab Creator is intended to store guitar tab created through the tool. It currently does not support in-line text editing. Any text you place in here will be lost. If you need to comment on your tab, please use the "Tab Notes" section located below.