Ruined

(/) Slide Up  (\) Slide Down  (h) Hammer On  (p) Pull Off  (b) Bend (r) Release (v) Vibrato

E|--------------------------------------------------------------------------------------
B|--------------------------------------------------------------------------------------
G|--------------------------------------------------------------------------------------
D|--------6-----------7--------6-----------5--------6-----------7--------6-----------5--
A|-----4-----4-----5--------4-----4-----3--------4-----4-----5--------4-----4-----3-----
E|--4-----------5--------4-----------3--------4-----------5--------4-----------3--------



E|--------------------------------------------------------------------------------
B|--------------------------------------------------------------------------------
G|--------------------------------------------------------------------------------
D|--------6-----------8--------7--------6--------6-----------8--------7--------6--
A|-----4-----4-----6--------5--------4--------4-----4-----6--------5--------4-----
E|--4-----------6--------5--------4--------4-----------6--------5--------4--------
http://www.guitartabcreator.com
Guitar Tab Creator is intended to store guitar tab created through the tool. It currently does not support in-line text editing. Any text you place in here will be lost. If you need to comment on your tab, please use the "Tab Notes" section located below.