Led Zeppelin - Black Dog - Information from www.justinguitar.com RF-019

(/) Slide Up  (\) Slide Down  (h) Hammer On  (p) Pull Off  (b) Bend (r) Release (v) Vibrato
E|---------------------------------------------------------------------------
B|--------------------------5------------------------------------------2--2--
G|-----------------5-----7-----5h7p5--------5--------------------------2--2--
D|-----5--6--7--------7---------------7--7-----7--5--7--7--0--2-----0--2--2--
A|--7-----------7------------------------------------------------3-----------
E|---------------------------------------------------------------------------



E|-----------------------------------------------------------------------------
B|-----------------------------------------------------------------------------
G|-----------------------------------------------------------------------------
D|-----------------5--------------------5--------------------5-----------------
A|-----5--6--7--------7-----5--6--7--------7-----5--6--7--------7--5--6--7--5--
E|--7-----------7--------7-----------7--------7-----------7--------------------



E|----------------------------------------------------------------------------------------------
B|----------------------------------------------------------------------------------------------
G|-------2--2--4b6r4p2--4--2-------2--2--4b6r4p2--4--2-------2--5--2--2--4b6r4p2-------------2--
D|-------2-------------------------2-------------------------2--5--2--------------4--2-------2--
A|--3b5--0--------------------3b5--0--------------------3b5--0-----0--------------------3b5--0--
E|----------------------------------------------------------------------------------------------



E|------------------------------------------------------------------
B|------------------------------------------------------------------
G|--2--4b6r4p2--4--2-------2--5--2--2-------2--2--4b6r4p2--4--2--2--
D|-------------------------2--5--2--2-------2--------------------2--
A|--------------------3b5--0-----0--0--3b5--0--------------------0--
E|------------------------------------------------------------------



E|-----------------------------------------3--3-----
B|-----------------------------------------3--3-----
G|--2-----2-----2-----2--5--2--2-----2-----0--2--2--
D|--2-----2-----2-----2--5--2--2-----2-----0--0--2--
A|--0-----0-----0-----0-----0--0-----0-----------0--
E|-----3-----3-----3--------------3-----3-----------
http://www.guitartabcreator.com
Guitar Tab Creator is intended to store guitar tab created through the tool. It currently does not support in-line text editing. Any text you place in here will be lost. If you need to comment on your tab, please use the "Tab Notes" section located below.