Dead Souls - Joy Division

(/) Slide Up  (\) Slide Down  (h) Hammer On  (p) Pull Off  (b) Bend (r) Release (v) Vibrato
E|------------------------------------------------------
B|------------------------------------------------------
G|--3h5--3--3--5--5--3h5--5--5--5--5--3--3--5--5--3--3--
D|------------------------------------------------------
A|------------------------------------------------------
E|------------------------------------------------------



E|-------------------------------------------------------------------------------
B|-------------------------------------------------------------------------------
G|--5--5--5--3--3--5--5--5--5--5-------------------------------------------------
D|-------------------------------------------------------------------------------
A|--------------------------------1--1--1--1--1--1--1--1h3--3--3--3--3--3--3--3--
E|-------------------------------------------------------------------------------



E|-------------------------------------------------
B|-------------------------------------------------
G|-------------------------------------------------
D|-------------------------------------------------
A|--1--1--1--1--1--1--1--1h3--3--3--3--3--3--3--3--
E|-------------------------------------------------



E|-----------------------------------------------------------------------------------
B|-----------------------------------------------------------------------------------
G|-----------------------------------------------------------------------------------
D|-----3-----3-------5----------3-----3--3--------3-----3--3/5--5--5--5--5--5--5--5--
A|--1-----1-----1h3-----3\1--1-----1--------1--1-----1-----1-3-----------------------
E|-----------------------------------------------------------------------------------
http://www.guitartabcreator.com
Guitar Tab Creator is intended to store guitar tab created through the tool. It currently does not support in-line text editing. Any text you place in here will be lost. If you need to comment on your tab, please use the "Tab Notes" section located below.