Strike Witches 2 OP

(/) Slide Up  (\) Slide Down  (h) Hammer On  (p) Pull Off  (b) Bend (r) Release (v) Vibrato


E|--5--4--5----5--4--5------5--7--9--10--7--9--5------5--4--2--4--5------5--10--5--5--4--5--
B|------------------------------------------------------------------------------------------
G|------------------------------------------------------------------------------------------
D|------------------------------------------------------------------------------------------
A|------------------------------------------------------------------------------------------
E|------------------------------------------------------------------------------------------



E|--0--0--0--2--0---------------------5--4--0--0-----2------2--0--------------------
B|-----------------3--2--0--2------2--------------2---------------2-----2--2--0--0--
G|-------------------------------------------------------------------2--------------
D|----------------------------------------------------------------------------------
A|----------------------------------------------------------------------------------
E|----------------------------------------------------------------------------------



E|--0--0--0--2--0---------------------5--4--0--0-----2------2--0--------------------
B|-----------------3--2--0--2------2--------------2---------------2-----2--2--0--0--
G|-------------------------------------------------------------------2--------------
D|----------------------------------------------------------------------------------
A|----------------------------------------------------------------------------------
E|----------------------------------------------------------------------------------



E|--2--2--2--2--2--4--0-----0------0--7--7--5--5------2--4--5--4--5------2--4--5--4--5------
B|-----------------------3------------------------------------------------------------------
G|------------------------------------------------------------------------------------------
D|------------------------------------------------------------------------------------------
A|------------------------------------------------------------------------------------------
E|------------------------------------------------------------------------------------------



E|--5--7--9--7--7------------0-----0--7--5------4--4--4--5--2------0--2--4--5--2--
B|---------------------2--3-----2-------------------------------------------------
G|--------------------------------------------------------------------------------
D|--------------------------------------------------------------------------------
A|--------------------------------------------------------------------------------
E|--------------------------------------------------------------------------------



E|--4--0------7--5------5--7--9--9--7--7--5--7------------0-----0--7--5----4--4--4--5--2--
B|--------------------------------------------------2--3-----2----------------------------
G|----------------------------------------------------------------------------------------
D|----------------------------------------------------------------------------------------
A|----------------------------------------------------------------------------------------
E|----------------------------------------------------------------------------------------



E|--0--2--4--5--2------4--0------7--5------5--7--9--9--7--7--5--7------9--4--5------5--4--5--
B|-------------------------------------------------------------------------------------------
G|-------------------------------------------------------------------------------------------
D|-------------------------------------------------------------------------------------------
A|-------------------------------------------------------------------------------------------
E|-------------------------------------------------------------------------------------------



E|--5--7--9--10--7--9--5------5--4--2--4--5------5--10--5--5--4--5--
B|------------------------------------------------------------------
G|------------------------------------------------------------------
D|------------------------------------------------------------------
A|------------------------------------------------------------------
E|------------------------------------------------------------------
http://www.guitartabcreator.com
Guitar Tab Creator is intended to store guitar tab created through the tool. It currently does not support in-line text editing. Any text you place in here will be lost. If you need to comment on your tab, please use the "Tab Notes" section located below.