Madoka

(/) Slide Up  (\) Slide Down  (h) Hammer On  (p) Pull Off  (b) Bend (r) Release (v) Vibrato

E|--------------5------------5------------5----8-----------------------
B|--6--5--6--8---------6--8---------6--8------------8----8----5--6--8--
G|---------------------------------------------------------------------
D|---------------------------------------------------------------------
A|---------------------------------------------------------------------
E|---------------------------------------------------------------------



E|------------------------------5----------5----------5----8------------------------
B|--5--8--6--5--6---------6--8-------6--8-------6--8------------8----8----7--8--10--
G|---------------------7------------------------------------------------------------
D|----------------------------------------------------------------------------------
A|----------------------------------------------------------------------------------
E|----------------------------------------------------------------------------------



E|---------------------11----9---------------------------------------------11----9--
B|--10------11----9---------------9----------------11------9--11----9---------------
G|-----------------------------------11---------------------------------------------
D|----------------------------------------------------------------------------------
A|----------------------------------------------------------------------------------
E|----------------------------------------------------------------------------------



E|------------------------------------------------------------------------------------------
B|--8-------------------6---------------------------------------------9----9--8--8--6--6----
G|-----5--7--8----7--8-------7--7--7--5------------5--7----------7--------------------------
D|---------------------------------------8------8--------8----8-----------------------------
A|------------------------------------------------------------------------------------------
E|------------------------------------------------------------------------------------------



E|------------------------------------------------------------------------
B|-------------6--------------8-------------------6-----------------------
G|--8--7----8-------8--7---------5--7--8----7--8-------7--7--7--5---------
D|-----------------------------------------------------------------8------
A|------------------------------------------------------------------------
E|------------------------------------------------------------------------



E|--6----------------------------------------6---------------
B|-----8----6-------6-----6-------6--6------------8----6-----
G|-------------8-------8-------8-----------------------------
D|--------------------------------------8-----------------8--
A|-----------------------------------------------------------
E|-----------------------------------------------------------



E|------------------------------------------------
B|-----6--8------6------------6---------8--8------
G|--8---------------8------8-------5--------------
D|------------------------------------------------
A|------------------------------------------------
E|------------------------------------------------
http://www.guitartabcreator.com
Guitar Tab Creator is intended to store guitar tab created through the tool. It currently does not support in-line text editing. Any text you place in here will be lost. If you need to comment on your tab, please use the "Tab Notes" section located below.