ZZ Top inspired EZ Blues

(/) Slide Up  (\) Slide Down  (h) Hammer On  (p) Pull Off  (b) Bend (r) Release (v) Vibrato


E|--5--5--------|-----------5-----------|------------------------------|--
B|--5--5--------|-----------5--5--------|------------------------------|--
G|--5-----0-----|--------------5--0-----|--7p5--7b8--5h7b8p5------5b6--|--
D|--5-----0--0--|-----------------0--0--|---------------------7v-------|--
A|--7--------0--|--7--7--7-----------0--|------------------------------|--
E|--5-----------|--5--5--5--------------|------------------------------|--



E|--------------------|------------|--------5--------|------------|--------5--|--
B|--------------------|------------|--8b10-----8b10--|------------|-----------|--
G|-------5b6----------|--7b8p5-----|-----------------|-------7\5--|--7b8v-----|--
D|--5h7-------7p5-----|---------7--|-----------------|--5/7-------|-----------|--
A|-----------------7--|------------|-----------------|------------|-----------|--
E|--------------------|------------|-----------------|------------|-----------|--
http://www.guitartabcreator.com
Guitar Tab Creator is intended to store guitar tab created through the tool. It currently does not support in-line text editing. Any text you place in here will be lost. If you need to comment on your tab, please use the "Tab Notes" section located below.